  0
SECTION
  2
HEADER
  9
$ACADVER
  1
AC1009
  9
$INSBASE
 10
0.0
 20
0.0
 30
0.0
  9
$EXTMIN
 10
874.9400476240507487
 20
-146.1782908587518079
 30
-0.0000000349181948
  9
$EXTMAX
 10
1071.2490798176279441
 20
80.2306264384229735
 30
0.0000000814935747
  9
$LIMMIN
 10
0.0
 20
0.0
  9
$LIMMAX
 10
297.0
 20
210.0
  9
$ORTHOMODE
 70
     0
  9
$REGENMODE
 70
     1
  9
$FILLMODE
 70
     1
  9
$QTEXTMODE
 70
     0
  9
$MIRRTEXT
 70
     0
  9
$DRAGMODE
 70
     2
  9
$LTSCALE
 40
0.4
  9
$OSMODE
 70
  1447
  9
$ATTMODE
 70
     1
  9
$TEXTSIZE
 40
5.0
  9
$TRACEWID
 40
1.0
  9
$TEXTSTYLE
  7
STANDARD
  9
$CLAYER
  8
01_表面形状
  9
$CELTYPE
  6
BYLAYER
  9
$CECOLOR
 62
   256
  9
$DIMSCALE
 40
1.0
  9
$DIMASZ
 40
2.5
  9
$DIMEXO
 40
1.0
  9
$DIMDLI
 40
10.0
  9
$DIMRND
 40
0.0
  9
$DIMDLE
 40
0.0
  9
$DIMEXE
 40
1.0
  9
$DIMTP
 40
0.1
  9
$DIMTM
 40
0.1
  9
$DIMTXT
 40
2.5
  9
$DIMCEN
 40
0.0
  9
$DIMTSZ
 40
0.0
  9
$DIMTOL
 70
     0
  9
$DIMLIM
 70
     0
  9
$DIMTIH
 70
     0
  9
$DIMTOH
 70
     0
  9
$DIMSE1
 70
     0
  9
$DIMSE2
 70
     0
  9
$DIMTAD
 70
     3
  9
$DIMZIN
 70
     8
  9
$DIMBLK
  1

  9
$DIMASO
 70
     1
  9
$DIMSHO
 70
     1
  9
$DIMPOST
  1

  9
$DIMAPOST
  1

  9
$DIMALT
 70
     0
  9
$DIMALTD
 70
     2
  9
$DIMALTF
 40
25.3999999999999986
  9
$DIMLFAC
 40
1.0
  9
$DIMTOFL
 70
     1
  9
$DIMTVP
 40
0.0
  9
$DIMTIX
 70
     0
  9
$DIMSOXD
 70
     0
  9
$DIMSAH
 70
     0
  9
$DIMBLK1
  1

  9
$DIMBLK2
  1

  9
$DIMSTYLE
  2
部品図用_1_1
  9
$DIMCLRD
 70
   256
  9
$DIMCLRE
 70
   256
  9
$DIMCLRT
 70
   256
  9
$DIMTFAC
 40
0.7
  9
$DIMGAP
 40
1.0
  9
$LUNITS
 70
     2
  9
$LUPREC
 70
     2
  9
$SKETCHINC
 40
1.0
  9
$FILLETRAD
 40
0.0
  9
$AUNITS
 70
     1
  9
$AUPREC
 70
     3
  9
$MENU
  1
.
  9
$ELEVATION
 40
0.0
  9
$PELEVATION
 40
0.0
  9
$THICKNESS
 40
0.0
  9
$LIMCHECK
 70
     0
  9
$BLIPMODE
 70
     0
  9
$CHAMFERA
 40
0.0
  9
$CHAMFERB
 40
0.0
  9
$SKPOLY
 70
     0
  9
$TDCREATE
 40
2457049.1084837969392538
  9
$TDUPDATE
 40
2460132.4780208338052034
  9
$TDINDWG
 40
0.1547863773
  9
$TDUSRTIMER
 40
0.1547861921
  9
$USRTIMER
 70
     1
  9
$ANGBASE
 50
0.0
  9
$ANGDIR
 70
     0
  9
$PDMODE
 70
     3
  9
$PDSIZE
 40
0.0
  9
$PLINEWID
 40
0.0
  9
$COORDS
 70
     1
  9
$SPLFRAME
 70
     0
  9
$SPLINETYPE
 70
     6
  9
$SPLINESEGS
 70
     8
  9
$ATTDIA
 70
     1
  9
$ATTREQ
 70
     1
  9
$HANDLING
 70
     1
  9
$HANDSEED
  5
DA3C
  9
$SURFTAB1
 70
     6
  9
$SURFTAB2
 70
     6
  9
$SURFTYPE
 70
     6
  9
$SURFU
 70
     6
  9
$SURFV
 70
     6
  9
$UCSNAME
  2

  9
$UCSORG
 10
0.0
 20
0.0
 30
0.0
  9
$UCSXDIR
 10
1.0
 20
0.0
 30
0.0
  9
$UCSYDIR
 10
0.0
 20
1.0
 30
0.0
  9
$PUCSNAME
  2

  9
$PUCSORG
 10
0.0
 20
0.0
 30
0.0
  9
$PUCSXDIR
 10
1.0
 20
0.0
 30
0.0
  9
$PUCSYDIR
 10
0.0
 20
1.0
 30
0.0
  9
$USERI1
 70
     0
  9
$USERI2
 70
     0
  9
$USERI3
 70
     0
  9
$USERI4
 70
     0
  9
$USERI5
 70
     0
  9
$USERR1
 40
0.0
  9
$USERR2
 40
0.0
  9
$USERR3
 40
0.0
  9
$USERR4
 40
0.0
  9
$USERR5
 40
0.0
  9
$WORLDVIEW
 70
     1
  9
$SHADEDGE
 70
     3
  9
$SHADEDIF
 70
    70
  9
$TILEMODE
 70
     1
  9
$MAXACTVP
 70
    64
  9
$PLIMCHECK
 70
     0
  9
$PEXTMIN
 10
1.0000000000000000E+20
 20
1.0000000000000000E+20
 30
1.0000000000000000E+20
  9
$PEXTMAX
 10
-1.0000000000000000E+20
 20
-1.0000000000000000E+20
 30
-1.0000000000000000E+20
  9
$PLIMMIN
 10
-5.873748779296875
 20
-5.8737497329711914
  9
$PLIMMAX
 10
291.1369018554688068
 20
204.0995779037475018
  9
$UNITMODE
 70
     0
  9
$VISRETAIN
 70
     1
  9
$PLINEGEN
 70
     0
  9
$PSLTSCALE
 70
     1
  0
ENDSEC
  0
SECTION
  2
TABLES
  0
TABLE
  2
VPORT
 70
     1
  0
VPORT
  2
*ACTIVE
 70
     0
 10
0.0
 20
0.0
 11
1.0
 21
1.0
 12
973.0945637208395738
 22
-32.9738322101644101
 13
0.0
 23
0.0
 14
10.0
 24
10.0
 15
10.0
 25
10.0
 16
0.0
 26
0.0
 36
1.0
 17
0.0
 27
0.0
 37
0.0
 40
228.048137334137607
 41
1.765830346475507
 42
50.0
 43
0.0
 44
0.0
 50
0.0
 51
0.0
 71
     0
 72
  1000
 73
     1
 74
     3
 75
     0
 76
     0
 77
     0
 78
     0
  0
ENDTAB
  0
TABLE
  2
LTYPE
 70
     3
  0
LTYPE
  2
CONTINUOUS
 70
     0
  3
Solid line
 72
    65
 73
     0
 40
0.0
  0
LTYPE
  2
CENTER
 70
     0
  3
Center ____ _ ____ _ ____ _ ____ _ ____ _ ____
 72
    65
 73
     4
 40
50.7999999999999972
 49
31.75
 49
-6.3499999999999979
 49
6.3499999999999979
 49
-6.3499999999999979
  0
ENDTAB
  0
TABLE
  2
LAYER
 70
     6
  0
LAYER
  2
0
 70
     0
 62
     7
  6
CONTINUOUS
  0
LAYER
  2
01_表面形状
 70
     0
 62
     7
  6
CONTINUOUS
  0
LAYER
  2
04_中心線
 70
     0
 62
     4
  6
CENTER
  0
LAYER
  2
12_文字
 70
     0
 62
     2
  6
CONTINUOUS
  0
LAYER
  2
DEFPOINTS
 70
     0
 62
     7
  6
CONTINUOUS
  0
ENDTAB
  0
TABLE
  2
STYLE
 70
     2
  0
STYLE
  2
STANDARD
 70
     0
 40
0.0
 41
1.0
 50
0.0
 71
     0
 42
5.0
  3
isocp.shx
  4
extfont2.shx
  0
STYLE
  2
MX_NOTE_STANDARD
 70
     0
 40
0.0
 41
1.0
 50
0.0
 71
     0
 42
3.299999999999998
  3
txt.shx
  4
extfont.shx
  0
ENDTAB
  0
TABLE
  2
VIEW
 70
     0
  0
ENDTAB
  0
TABLE
  2
UCS
 70
     0
  0
ENDTAB
  0
TABLE
  2
APPID
 70
    38
  0
APPID
  2
ACAD
 70
     0
  0
APPID
  2
ACAECLAYERSTANDARD
 70
     0
  0
APPID
  2
ACAD_PSEXT
 70
     0
  0
APPID
  2
ACAD_EXEMPT_FROM_CAD_STANDARDS
 70
     0
  0
APPID
  2
GENIUS_GENODEF_13
 70
     0
  0
APPID
  2
GENIUS_GENOBJ-N-CEN_13
 70
     0
  0
APPID
  2
GENIUS_GENCEN_19
 70
     0
  0
APPID
  2
GENIUS_GENTRA_14
 70
     0
  0
APPID
  2
GENIUS_GENOREF_13
 70
     0
  0
APPID
  2
GENIUS_GENSCREG_15
 70
     0
  0
APPID
  2
GENIUS_GENOBJ-N-SDF_13
 70
     0
  0
APPID
  2
GENIUS_GENOBJ-N-LIB_13
 70
     0
  0
APPID
  2
GENIUS_GENOBJ-N-RSBK_13
 70
     0
  0
APPID
  2
GENIUS_GENSCALE_13
 70
     0
  0
APPID
  2
GENIUS_AMGTXT_16
 70
     0
  0
APPID
  2
GENIUS_GENFIL_13
 70
     0
  0
APPID
  2
GENIUS_GENOBJ-N-CHA_13
 70
     0
  0
APPID
  2
GENIUS_GENOBJ-N-FIL_13
 70
     0
  0
APPID
  2
GENIUS_GENDTOL_13
 70
     0
  0
APPID
  2
ACAD_DIMASSOC_DIMLFAC
 70
     0
  0
APPID
  2
ACAD_DIMASSOC_CALC_DIMLFAC
 70
     0
  0
APPID
  2
ACAD_DIMASSOC_OVERRIDDEN_D
 70
     0
  0
APPID
  2
GENIUS_GENOBJ-N-ZOO_13
 70
     0
  0
APPID
  2
GENIUS_GENZOO_16
 70
     0
  0
APPID
  2
ACAD_DSTYLE_DIMJAG
 70
     0
  0
APPID
  2
ACAD_DSTYLE_DIMTALN
 70
     0
  0
APPID
  2
ACAD_DSTYLE_DIMBREAK
 70
     0
  0
APPID
  2
ACAD_DSTYLE_DIMARC_LENGTH_
 70
     0
  0
APPID
  2
ACAD_DSTYLE_DIMJOGGED_JOGA
 70
     0
  0
APPID
  2
ACAD_DSTYLE_DIM_LINETYPE
 70
     0
  0
APPID
  2
ACAD_DSTYLE_DIM_EXT1_LINETYPE
 70
     0
  0
APPID
  2
ACAD_DSTYLE_DIM_EXT2_LINETYPE
 70
     0
  0
APPID
  2
ACDBATTR
 70
     0
  0
APPID
  2
ACAD_MLEADERVER
 70
     0
  0
APPID
  2
ACAD_DSTYLE_DIMRADIAL_EXTENSION
 70
     0
  0
APPID
  2
ACADANNOPO
 70
     0
  0
APPID
  2
ACAUTHENVIRON
 70
     0
  0
APPID
  2
ACAD_NAV_VCDISPLAY
 70
     0
  0
ENDTAB
  0
TABLE
  2
DIMSTYLE
 70
     2
  0
DIMSTYLE
  2
部品図用_1_1
 70
     0
  3

  4

  5

  6

  7

 40
1.0
 41
2.5
 42
1.0
 43
10.0
 44
1.0
 45
0.0
 46
0.0
 47
0.1
 48
0.1
140
2.5
141
0.0
142
0.0
143
25.3999999999999986
144
1.0
145
0.0
146
0.7
147
1.0
 71
     0
 72
     0
 73
     0
 74
     0
 75
     0
 76
     0
 77
     3
 78
     8
170
     0
171
     2
172
     1
173
     0
174
     0
175
     0
176
   256
177
   256
178
   256
  0
DIMSTYLE
  2
STANDARD
 70
     0
  3

  4

  5
OPEN30
  6

  7

 40
1.0
 41
0.18
 42
0.0625
 43
0.38
 44
0.18
 45
0.0
 46
0.0
 47
0.0
 48
0.0
140
0.18
141
0.09
142
0.0
143
25.3999999999999986
144
1.0
145
0.0
146
1.0
147
0.09
 71
     0
 72
     0
 73
     0
 74
     0
 75
     0
 76
     0
 77
     1
 78
     0
170
     0
171
     2
172
     1
173
     0
174
     0
175
     0
176
     0
177
     0
178
     0
  0
ENDTAB
  0
ENDSEC
  0
SECTION
  2
BLOCKS
  0
BLOCK
  8
0
  2
$MODEL_SPACE
 70
     2
 10
0.0
 20
0.0
 30
0.0
  3
$MODEL_SPACE
  1

  0
ENDBLK
  5
39
  8
0
  0
BLOCK
 67
     1
  8
0
  2
$PAPER_SPACE
 70
     0
 10
0.0
 20
0.0
 30
0.0
  3
$PAPER_SPACE
  1

  0
ENDBLK
  5
35
 67
     1
  8
0
  0
BLOCK
  8
0
  2
_OPEN30
 70
     0
 10
0.0
 20
0.0
 30
0.0
  3
_OPEN30
  1

  0
LINE
  5
93EB
  8
0
  6
BYBLOCK
 62
     0
 10
-1.0
 20
0.26794919
 30
0.0
 11
0.0
 21
0.0
 31
0.0
  0
LINE
  5
93EC
  8
0
  6
BYBLOCK
 62
     0
 10
0.0
 20
0.0
 30
0.0
 11
-1.0
 21
-0.26794919
 31
0.0
  0
LINE
  5
93ED
  8
0
  6
BYBLOCK
 62
     0
 10
0.0
 20
0.0
 30
0.0
 11
-1.0
 21
0.0
 31
0.0
  0
ENDBLK
  5
93EE
  8
0
  0
ENDSEC
  0
SECTION
  2
ENTITIES
  0
ARC
  5
D678
  8
01_表面形状
 62
     3
 10
1033.1836939675620215
 20
-67.7334105822261847
 30
0.0
 40
33.0
 50
161.1729452883386102
 51
18.8270547116614004
  0
ARC
  5
D679
  8
01_表面形状
 62
     3
 10
892.6312238543018793
 20
70.1747268892581815
 30
0.0
 40
1.719607088858329
 50
225.1256337375060923
 51
268.0479173696925272
  0
ARC
  5
D67A
  8
01_表面形状
 62
     3
 10
892.6312238543018793
 20
14.2375086095537409
 30
0.0
 40
1.7196070888583801
 50
91.9520826303075438
 51
134.8743662624962099
  0
LINE
  5
D67B
  8
01_表面形状
 62
     3
 10
879.9745715004670501
 20
42.2061177494058484
 30
0.0
 11
879.9745715004670501
 21
67.9561177494060757
 31
0.0
  0
LINE
  5
D67C
  8
01_表面形状
 62
     3
 10
879.9745715004670501
 20
15.4561177494047097
 30
0.0
 11
891.4179471734398703
 21
15.4561177494047097
 31
0.0
  0
LINE
  5
D67D
  8
01_表面形状
 62
     3
 10
879.9745715004670501
 20
42.2061177494058484
 30
0.0
 11
879.9745715004670501
 21
16.4561177494058484
 31
0.0
  0
LINE
  5
D67E
  8
01_表面形状
 62
     3
 10
879.9745715004670501
 20
68.956117749406971
 30
0.0
 11
891.4179471734398703
 21
68.956117749406971
 31
0.0
  0
LINE
  5
D67F
  8
01_表面形状
 62
     3
 10
1001.9492935376889591
 20
-57.0838927627948181
 30
0.0
 11
1005.6836939675620215
 21
-30.5122530128220717
 31
0.0
  0
LINE
  5
D680
  8
01_表面形状
 62
     3
 10
1005.6836939675609983
 20
-20.9334105822261201
 30
0.0
 11
1005.6836939675620215
 21
-30.5122530128213896
 31
0.0
  0
LINE
  5
D681
  8
04_中心線
 62
   110
 10
874.9745715004669364
 20
42.2061177494058484
 30
0.0
 11
973.9745715004668227
 21
42.2061177494058484
 31
0.0
  0
ARC
  5
D682
  8
01_表面形状
 62
     3
 10
923.9745715004668227
 20
42.2061177494058484
 30
0.0
 40
28.6554083470240109
 50
244.9792046551604017
 51
210.6618491622527927
  0
ARC
  5
D683
  8
01_表面形状
 62
     3
 10
923.9745715004668227
 20
-14.7938822505941499
 30
0.0
 40
90.0
 50
71.7996619010301629
 51
90.0
  0
ARC
  5
D684
  8
01_表面形状
 62
     3
 10
923.9745715004668227
 20
99.2061177494058484
 30
0.0
 40
90.0
 50
270.0
 51
288.200338098969894
  0
ARC
  5
D685
  8
01_表面形状
 62
     3
 10
923.9745715004668227
 20
42.2061177494058484
 30
0.0
 40
33.0
 50
247.3158119918410875
 51
270.0
  0
ARC
  5
D686
  8
01_表面形状
 62
     3
 10
911.6010791630885706
 20
15.6962025302294705
 30
0.0
 40
0.6
 50
64.9792046551604159
 51
177.000000000040103
  0
ARC
  5
D687
  8
01_表面形状
 62
     3
 10
910.5000892171095757
 20
15.7061177494060704
 30
0.0
 40
0.5
 50
270.0
 51
356.999999999994202
  0
LINE
  5
D688
  8
01_表面形状
 62
     3
 10
910.999403984486662
 20
15.6799497712845497
 30
0.0
 11
911.0019014422358623
 21
15.7276041039748407
 31
0.0
  0
LINE
  5
D689
  8
01_表面形状
 62
     3
 10
905.4745715004662543
 20
15.2061177494058501
 30
0.0
 11
910.5000892171095757
 21
15.2061177494058501
 31
0.0
  0
LINE
  5
D68A
  8
01_表面形状
 62
     3
 10
899.3254176266600552
 20
27.5927115468774709
 30
0.0
 11
899.9497390164470971
 21
15.6799497712843294
 31
0.0
  0
ARC
  5
D68B
  8
01_表面形状
 62
     3
 10
900.4490537838242972
 20
15.7061177494060704
 30
0.0
 40
0.5
 50
183.0000000000057128
 51
270.0
  0
LINE
  5
D68C
  8
01_表面形状
 62
     3
 10
899.9352656660047387
 20
15.9561177494059603
 30
0.0
 11
892.5726477118200819
 21
15.9561177494060704
 31
0.0
  0
LINE
  5
D68D
  8
01_表面形状
 62
     3
 10
905.4745715004669364
 20
15.2061177494058501
 30
0.0
 11
900.4490537838242972
 21
15.2061177494058501
 31
0.0
  0
LINE
  5
D68E
  8
01_表面形状
 62
     3
 10
905.4745715004669364
 20
10.9961177494058404
 30
0.0
 11
900.4490537838242972
 21
10.9961177494058404
 31
0.0
  0
ARC
  5
D68F
  8
01_表面形状
 62
     3
 10
923.9745715004668227
 20
42.2061177494058484
 30
0.0
 40
33.0
 50
90.0
 51
124.6774105881019068
  0
ARC
  5
D690
  8
01_表面形状
 62
     3
 10
902.3542685423674357
 20
73.4561177494058484
 30
0.0
 40
5.0
 50
270.0
 51
304.6774105881019068
  0
LINE
  5
D691
  8
01_表面形状
 62
     3
 10
902.3542685423674357
 20
68.4561177494058484
 30
0.0
 11
892.5726477118200819
 21
68.4561177494058484
 31
0.0
  0
LINE
  5
D692
  8
04_中心線
 62
   110
 10
923.9745715004668227
 20
80.2061177494058484
 30
0.0
 11
923.9745715004668227
 21
4.2061177494058484
 31
0.0
  0
LINE
  5
D693
  8
01_表面形状
 62
     3
 10
968.9745715004669364
 20
42.2061177494058484
 30
0.0
 11
968.9745715004669364
 21
67.9561177494060757
 31
0.0
  0
LINE
  5
D694
  8
01_表面形状
 62
     3
 10
968.9745715004669364
 20
42.2061177494058484
 30
0.0
 11
968.9745715004669364
 21
16.4561177494058484
 31
0.0
  0
ARC
  5
D695
  8
01_表面形状
 62
     3
 10
956.8306624926800623
 20
13.4561177494059603
 30
0.0
 40
2.5
 50
96.1431392943968035
 51
128.1199015670545975
  0
ARC
  5
D696
  8
01_表面形状
 62
     3
 10
956.6701139984838846
 20
14.9473436914067808
 30
0.0
 40
1.000156466930328
 50
30.5769077211900608
 51
96.1404781147795831
  0
LINE
  5
D697
  8
01_表面形状
 62
     3
 10
968.9745715004669364
 20
15.4561177494046795
 30
0.0
 11
957.5311958274935478
 21
15.4561177494047097
 31
0.0
  0
ARC
  5
D698
  8
01_表面形状
 62
     3
 10
948.8056431771561847
 20
23.6834861785508792
 30
0.0
 40
10.5
 50
288.200338098969894
 51
308.1199015670545123
  0
ARC
  5
D699
  8
01_表面形状
 62
     3
 10
956.6701139984838846
 20
69.4648918074049107
 30
0.0
 40
1.0001564669302081
 50
263.8595218852203743
 51
329.4230922788099747
  0
ARC
  5
D69A
  8
01_表面形状
 62
     3
 10
956.8306624926800623
 20
70.9561177494058484
 30
0.0
 40
2.5
 50
231.8800984329444077
 51
263.8568607056033102
  0
ARC
  5
D69B
  8
01_表面形状
 62
     3
 10
948.8056431771561847
 20
60.728749320260917
 30
0.0
 40
10.5
 50
51.8800984329454025
 51
71.7996619010301629
  0
LINE
  5
D69C
  8
01_表面形状
 62
     3
 10
968.9745715004669364
 20
68.9561177494069284
 30
0.0
 11
957.5311958274935478
 21
68.956117749406971
 31
0.0
  0
LINE
  5
D69D
  8
04_中心線
 62
   110
 10
1033.1836939675620215
 20
-5.9425998710964896
 30
0.0
 11
1033.1836939675620215
 21
-105.7334105822261989
 31
0.0
  0
LINE
  5
D69E
  8
01_表面形状
 62
     3
 10
1064.4180943974340607
 20
-57.0838927627941288
 30
0.0
 11
1060.6836939675620215
 21
-30.5122530128220717
 31
0.0
  0
LINE
  5
D69F
  8
04_中心線
 62
   110
 10
995.1836939675616804
 20
-67.7334105822261847
 30
0.0
 11
1071.1836939675620215
 21
-67.7334105822261847
 31
0.0
  0
LINE
  5
D6A0
  8
01_表面形状
 62
     3
 10
1032.1836939675620215
 20
-67.7334105822261847
 30
0.0
 11
1034.1836939675620215
 21
-67.7334105822261847
 31
0.0
  0
LINE
  5
D6A2
  8
01_表面形状
 62
     3
 10
1060.6836939675620215
 20
-20.9334105822261201
 30
0.0
 11
1060.6836939675620215
 21
-30.5122530128220717
 31
0.0
  0
LINE
  5
D6A3
  8
01_表面形状
 62
     3
 10
879.9745715004670501
 20
-95.8430397489262447
 30
0.0
 11
879.9745715004670501
 21
-84.2240897103260693
 31
0.0
  0
LINE
  5
D6A4
  8
01_表面形状
 62
     3
 10
968.9745715004669364
 20
-84.2240897103260693
 30
0.0
 11
968.9745715004669364
 21
-95.8430397489262447
 31
0.0
  0
ARC
  5
D6A5
  8
01_表面形状
 62
     3
 10
923.9745715004668227
 20
-67.7334105822262558
 30
0.0
 40
33.0
 50
235.3225894119071029
 51
270.0
  0
LINE
  5
D6A6
  8
01_表面形状
 62
     3
 10
892.5726477117669901
 20
-93.9834105822262558
 30
0.0
 11
902.3542685423669809
 21
-93.9834105822262558
 31
0.0
  0
ARC
  5
D6A7
  8
01_表面形状
 62
     3
 10
892.5726477117669901
 20
-95.48341058222627
 30
0.0
 40
1.5
 50
90.0
 51
149.9999999999994031
  0
LINE
  5
D6A8
  8
01_表面形状
 62
     3
 10
879.9745715004670501
 20
-95.9834105822262842
 30
0.0
 11
879.9745715004670501
 21
-95.8430397489262447
 31
0.0
  0
LINE
  5
D6A9
  8
01_表面形状
 62
     3
 10
889.9745715004669364
 20
-96.8156699165260903
 30
0.0
 11
889.9745715004669364
 21
-96.98341058222627
 31
0.0
  0
LINE
  5
D6AA
  8
01_表面形状
 62
     3
 10
889.9745715004669364
 20
-98.6216499838711513
 30
0.0
 11
891.2736096061667013
 21
-94.7334105822262842
 31
0.0
  0
ARC
  5
D6AB
  8
01_表面形状
 62
     3
 10
902.3542685423669809
 20
-98.9834105822262558
 30
0.0
 40
5.0
 50
55.3225894119071526
 51
90.0
  0
ARC
  5
D6AC
  8
01_表面形状
 62
     3
 10
923.9745715004668227
 20
-10.7334105822260995
 30
0.0
 40
90.0
 50
270.0
 51
288.200338098997122
  0
ARC
  5
D6AD
  8
01_表面形状
 62
     3
 10
956.830662492666761
 20
-96.4834105822262558
 30
0.0
 40
2.5
 50
96.1431392943968035
 51
128.1199015671064103
  0
ARC
  5
D6AE
  8
01_表面形状
 62
     3
 10
956.670143441466621
 20
-94.9920241017261873
 30
0.0
 40
1.0
 50
30.0000000000005507
 51
96.1431392943968035
  0
LINE
  5
D6AF
  8
01_表面形状
 62
     3
 10
958.974571500466709
 20
-96.8156699165260903
 30
0.0
 11
958.974571500466709
 21
-96.98341058222627
 31
0.0
  0
ARC
  5
D6B0
  8
01_表面形状
 62
     3
 10
948.8056431771666439
 20
-86.2560421530260868
 30
0.0
 40
10.5
 50
288.200338098997122
 51
308.119901567106524
  0
LINE
  5
D6B1
  8
01_表面形状
 62
     3
 10
957.5361688452668432
 20
-94.4920241017262015
 30
0.0
 11
958.974571500466709
 21
-98.6216499838711513
 31
0.0
  0
LINE
  5
D6B2
  8
01_表面形状
 62
     3
 10
968.9745715004669364
 20
-95.8430397489262447
 30
0.0
 11
968.9745715004669364
 21
-95.9834105822262842
 31
0.0
  0
LINE
  5
D6B5
  8
01_表面形状
 62
     3
 10
879.9745715004670501
 20
-51.2427314541262717
 30
0.0
 11
879.9745715004670501
 21
-39.6237814154261017
 31
0.0
  0
LINE
  5
D6B7
  8
01_表面形状
 62
     3
 10
879.9745715004670501
 20
-79.3523606208261612
 30
0.0
 11
879.9745715004670501
 21
-56.1144605436262012
 31
0.0
  0
LINE
  5
D6B8
  8
01_表面形状
 62
     3
 10
879.9745715004670501
 20
-84.2240897103260693
 30
0.0
 11
879.9745715004670501
 21
-79.3523606208261612
 31
0.0
  0
LINE
  5
D6B9
  8
01_表面形状
 62
     3
 10
889.9745715004669364
 20
-79.5655701484260902
 30
0.0
 11
889.9745715004669364
 21
-84.9835103503262559
 31
0.0
  0
LINE
  5
D6BA
  8
01_表面形状
 62
     3
 10
889.9745715004669364
 20
-50.4833108141261206
 30
0.0
 11
889.9745715004669364
 21
-55.9012510160262792
 31
0.0
  0
LINE
  5
D6BB
  8
01_表面形状
 62
     3
 10
879.9745715004670501
 20
-56.1144605436262012
 30
0.0
 11
879.9745715004670501
 21
-51.2427314541262717
 31
0.0
  0
LINE
  5
D6C4
  8
01_表面形状
 62
     3
 10
896.4745715004669364
 20
-20.9334105822261201
 30
0.0
 11
896.4745715004669364
 21
-30.5122530128260792
 31
0.0
  0
LINE
  5
D6C5
  8
04_中心線
 62
   110
 10
896.2425030631766276
 20
-38.7334105822263268
 30
0.0
 11
914.7426674491955509
 21
-38.7334105822263268
 31
0.0
  0
LINE
  5
D6C6
  8
01_表面形状
 62
     3
 10
891.2736096061667013
 20
-40.7334105822260923
 30
0.0
 11
889.9745715004669364
 21
-36.8451711805812181
 31
0.0
  0
LINE
  5
D6C7
  8
01_表面形状
 62
     3
 10
879.9745715004670501
 20
-39.6237814154261017
 30
0.0
 11
879.9745715004670501
 21
-39.4834105822260995
 31
0.0
  0
LINE
  5
D6C8
  8
01_表面形状
 62
     3
 10
889.9745715004669364
 20
-38.4834105822260995
 30
0.0
 11
889.9745715004669364
 21
-38.651151247926073
 31
0.0
  0
POLYLINE
  5
D6C9
  8
01_表面形状
 62
     3
 66
     1
 10
0.0
 20
0.0
 30
0.0
 70
   128
  0
VERTEX
  5
D9D3
  8
01_表面形状
 62
     3
 10
895.2927546448670455
 20
-38.9213168844260622
 30
0.0
  0
VERTEX
  5
D9D4
  8
01_表面形状
 62
     3
 10
895.2839192881669987
 20
-38.9770880046260686
 30
0.0
  0
VERTEX
  5
D9D5
  8
01_表面形状
 62
     3
 10
895.1481945153669812
 20
-39.4975824642261273
 30
0.0
  0
VERTEX
  5
D9D6
  8
01_表面形状
 62
     3
 10
894.9103070154669695
 20
-40.0050044542261389
 30
0.0
  0
VERTEX
  5
D9D7
  8
01_表面形状
 62
     3
 10
894.574385294666854
 20
-40.4682153939261866
 30
0.0
  0
VERTEX
  5
D9D8
  8
01_表面形状
 62
     3
 10
894.1524216617669936
 20
-40.8624586483261396
 30
0.0
  0
VERTEX
  5
D9D9
  8
01_表面形状
 62
     3
 10
893.6382279530666892
 20
-41.1806240919261697
 30
0.0
  0
VERTEX
  5
D9DA
  8
01_表面形状
 62
     3
 10
893.1142665997666654
 20
-41.377677079226082
 30
0.0
  0
VERTEX
  5
D9DB
  8
01_表面形状
 62
     3
 10
892.600546041766961
 20
-41.4707141483261807
 30
0.0
  0
VERTEX
  5
D9DC
  8
01_表面形状
 62
     3
 10
892.4706174476471006
 20
-41.4799365008802283
 30
0.0
  0
SEQEND
  5
D9DD
  8
01_表面形状
 62
     3
  0
ARC
  5
D6CA
  8
01_表面形状
 62
     3
 10
892.5726477117669901
 20
-39.9834105822260995
 30
0.0
 40
1.5
 50
210.0000000000005116
 51
266.0997194366045164
  0
LINE
  5
D6CB
  8
01_表面形状
 62
     3
 10
896.4745715004669364
 20
-30.5122530128260792
 30
0.0
 11
895.2927546448670455
 21
-38.9213168844260622
 31
0.0
  0
POLYLINE
  5
D6CC
  8
01_表面形状
 62
     3
 66
     1
 10
0.0
 20
0.0
 30
0.0
 70
   128
  0
VERTEX
  5
D9DE
  8
01_表面形状
 62
     3
 10
899.2862906510665653
 20
-37.8434110975263707
 30
0.0
  0
VERTEX
  5
D9DF
  8
01_表面形状
 62
     3
 10
899.4093568743666083
 20
-37.2166218594262119
 30
0.0
  0
VERTEX
  5
D9E0
  8
01_表面形状
 62
     3
 10
899.6004297983666902
 20
-36.5965077088263229
 30
0.0
  0
VERTEX
  5
D9E1
  8
01_表面形状
 62
     3
 10
899.8414613254666392
 20
-36.0271142741262906
 30
0.0
  0
VERTEX
  5
D9E2
  8
01_表面形状
 62
     3
 10
900.4171841174667179
 20
-35.0679656844263832
 30
0.0
  0
VERTEX
  5
D9E3
  8
01_表面形状
 62
     3
 10
901.3961308996665593
 20
-34.0041919289263319
 30
0.0
  0
VERTEX
  5
D9E4
  8
01_表面形状
 62
     3
 10
902.5149795002666906
 20
-33.2352555532264091
 30
0.0
  0
VERTEX
  5
D9E5
  8
01_表面形状
 62
     3
 10
902.7763421477667407
 20
-33.1015805206262215
 30
0.0
  0
VERTEX
  5
D9E6
  8
01_表面形状
 62
     3
 10
903.9427978445669396
 20
-32.6744705922263279
 30
0.0
  0
VERTEX
  5
D9E7
  8
01_表面形状
 62
     3
 10
905.1899970026667006
 20
-32.4841700766262989
 30
0.0
  0
VERTEX
  5
D9E8
  8
01_表面形状
 62
     3
 10
906.2635228861666974
 20
-32.5226888597263226
 30
0.0
  0
VERTEX
  5
D9E9
  8
01_表面形状
 62
     3
 10
907.3527969259667998
 20
-32.7564067229262292
 30
0.0
  0
VERTEX
  5
D9EA
  8
01_表面形状
 62
     3
 10
908.2714928005667616
 20
-33.1249531591263917
 30
0.0
  0
VERTEX
  5
D9EB
  8
01_表面形状
 62
     3
 10
909.1514653900667327
 20
-33.6564098975262027
 30
0.0
  0
VERTEX
  5
D9EC
  8
01_表面形状
 62
     3
 10
909.8742406017668145
 20
-34.2689567192263098
 30
0.0
  0
VERTEX
  5
D9ED
  8
01_表面形状
 62
     3
 10
910.5148776135666822
 20
-35.007891093226192
 30
0.0
  0
VERTEX
  5
D9EE
  8
01_表面形状
 62
     3
 10
911.0144366956668591
 20
-35.8047721082262527
 30
0.0
  0
VERTEX
  5
D9EF
  8
01_表面形状
 62
     3
 10
911.3977971607666859
 20
-36.6884694549262917
 30
0.0
  0
VERTEX
  5
D9F0
  8
01_表面形状
 62
     3
 10
911.6458410453668648
 20
-37.6483314612262774
 30
0.0
  0
VERTEX
  5
D9F1
  8
01_表面形状
 62
     3
 10
911.7420518427667275
 20
-38.6515150168264086
 30
0.0
  0
VERTEX
  5
D9F2
  8
01_表面形状
 62
     3
 10
911.6835302292669212
 20
-39.6054938043262723
 30
0.0
  0
VERTEX
  5
D9F3
  8
01_表面形状
 62
     3
 10
911.4810286855665709
 20
-40.5458374493262426
 30
0.0
  0
VERTEX
  5
D9F4
  8
01_表面形状
 62
     3
 10
911.1333969457667763
 20
-41.4503382690261901
 30
0.0
  0
VERTEX
  5
D9F5
  8
01_表面形状
 62
     3
 10
910.6554237798667373
 20
-42.2862018961262081
 30
0.0
  0
VERTEX
  5
D9F6
  8
01_表面形状
 62
     3
 10
909.9753075632667105
 20
-43.1198452403262422
 30
0.0
  0
VERTEX
  5
D9F7
  8
01_表面形状
 62
     3
 10
909.1863410849666707
 20
-43.8088782574262083
 30
0.0
  0
VERTEX
  5
D9F8
  8
01_表面形状
 62
     3
 10
908.3376477636667232
 20
-44.3310229877263779
 30
0.0
  0
VERTEX
  5
D9F9
  8
01_表面形状
 62
     3
 10
907.4559484555667268
 20
-44.6986730587262215
 30
0.0
  0
VERTEX
  5
D9FA
  8
01_表面形状
 62
     3
 10
906.3727666557665543
 20
-44.9488881027262366
 30
0.0
  0
VERTEX
  5
D9FB
  8
01_表面形状
 62
     3
 10
905.321463274066673
 20
-45.0046081171263381
 30
0.0
  0
VERTEX
  5
D9FC
  8
01_表面形状
 62
     3
 10
903.9818565427664225
 20
-44.8143818028263965
 30
0.0
  0
VERTEX
  5
D9FD
  8
01_表面形状
 62
     3
 10
902.774756067166777
 20
-44.3707358342263021
 30
0.0
  0
VERTEX
  5
D9FE
  8
01_表面形状
 62
     3
 10
901.4706967672665314
 20
-43.5217649876263266
 30
0.0
  0
VERTEX
  5
D9FF
  8
01_表面形状
 62
     3
 10
900.4101787428668331
 20
-42.3734818688263175
 30
0.0
  0
VERTEX
  5
DA00
  8
01_表面形状
 62
     3
 10
899.8825551110668357
 20
-41.5008508462263421
 30
0.0
  0
VERTEX
  5
DA01
  8
01_表面形状
 62
     3
 10
899.4817616432667364
 20
-40.4819409126262713
 30
0.0
  0
VERTEX
  5
DA02
  8
01_表面形状
 62
     3
 10
899.3286009250666666
 20
-39.8450814526264026
 30
0.0
  0
VERTEX
  5
DA03
  8
01_表面形状
 62
     3
 10
899.2397083319666535
 20
-39.149149956926351
 30
0.0
  0
VERTEX
  5
DA04
  8
01_表面形状
 62
     3
 10
899.2462825527667292
 20
-38.1955049792262002
 30
0.0
  0
VERTEX
  5
DA05
  8
01_表面形状
 62
     3
 10
899.2862906510665653
 20
-37.8434110975263707
 30
0.0
  0
SEQEND
  5
DA06
  8
01_表面形状
 62
     3
  0
LINE
  5
D6CD
  8
04_中心線
 62
   110
 10
905.4745715004669364
 20
-48.0007039313891823
 30
0.0
 11
905.4745715004669364
 21
-29.4924502803024211
 31
0.0
  0
LINE
  5
D6CE
  8
01_表面形状
 62
     3
 10
968.9745715004669364
 20
-39.6237814154261017
 30
0.0
 11
968.9745715004669364
 21
-51.2427314541262717
 31
0.0
  0
LINE
  5
D6CF
  8
04_中心線
 62
   110
 10
923.9745715004668227
 20
-8.2547372689082295
 30
0.0
 11
923.9745715004668227
 21
-105.7334105822261989
 31
0.0
  0
LINE
  5
D6D0
  8
04_中心線
 62
   110
 10
874.9745715004669364
 20
-67.7334105822261847
 30
0.0
 11
973.9745715004668227
 21
-67.7334105822261847
 31
0.0
  0
LINE
  5
D6D2
  8
01_表面形状
 62
     3
 10
958.974571500466709
 20
-79.5655701484260902
 30
0.0
 11
958.974571500466709
 21
-84.9835103503262559
 31
0.0
  0
LINE
  5
D6F3
  8
01_表面形状
 62
     3
 10
958.974571500466709
 20
-50.4833108141261206
 30
0.0
 11
958.974571500466709
 21
-55.9012510160262792
 31
0.0
  0
LINE
  5
D6F4
  8
01_表面形状
 62
     3
 10
968.9745715004669364
 20
-56.1144605436262012
 30
0.0
 11
968.9745715004669364
 21
-79.3523606208261612
 31
0.0
  0
LINE
  5
D6F5
  8
01_表面形状
 62
     3
 10
968.9745715004669364
 20
-79.3523606208261612
 30
0.0
 11
968.9745715004669364
 21
-84.2240897103260693
 31
0.0
  0
LINE
  5
D6F6
  8
01_表面形状
 62
     3
 10
968.9745715004669364
 20
-51.2427314541262717
 30
0.0
 11
968.9745715004669364
 21
-56.1144605436262012
 31
0.0
  0
LINE
  5
D6F7
  8
01_表面形状
 62
     3
 10
951.4745715004668227
 20
-30.5122530128260792
 30
0.0
 11
951.4745715004668227
 21
-20.9334105822261201
 31
0.0
  0
ARC
  5
D6F8
  8
01_表面形状
 62
     3
 10
956.830662492666761
 20
-38.9834105822260995
 30
0.0
 40
2.5
 50
231.8800984328935044
 51
263.8568607056033102
  0
ARC
  5
D6F9
  8
01_表面形状
 62
     3
 10
948.8056431771666439
 20
-49.2107790113262311
 30
0.0
 40
10.5
 50
51.8800984328935328
 51
60.3938952546049421
  0
LINE
  5
D6FA
  8
01_表面形状
 62
     3
 10
952.513344342166647
 20
-37.9035058392260567
 30
0.0
 11
951.4745715004668227
 21
-30.5122530128260792
 31
0.0
  0
POLYLINE
  5
D6FB
  8
01_表面形状
 62
     3
 66
     1
 10
0.0
 20
0.0
 30
0.0
 70
   128
  0
VERTEX
  5
DA07
  8
01_表面形状
 62
     3
 10
953.9930054969430557
 20
-40.0816349023002019
 30
0.0
  0
VERTEX
  5
DA08
  8
01_表面形状
 62
     3
 10
953.7500014047667491
 20
-39.926615012726252
 30
0.0
  0
VERTEX
  5
DA09
  8
01_表面形状
 62
     3
 10
953.321711494766646
 20
-39.5583812263260484
 30
0.0
  0
VERTEX
  5
DA0A
  8
01_表面形状
 62
     3
 10
952.9648419214665864
 20
-39.10840537722612
 30
0.0
  0
VERTEX
  5
DA0B
  8
01_表面形状
 62
     3
 10
952.6769855502667497
 20
-38.5390661226261528
 30
0.0
  0
VERTEX
  5
DA0C
  8
01_表面形状
 62
     3
 10
952.5239393013665676
 20
-37.9717339210261002
 30
0.0
  0
VERTEX
  5
DA0D
  8
01_表面形状
 62
     3
 10
952.513344342166647
 20
-37.9035058392260567
 30
0.0
  0
SEQEND
  5
DA0E
  8
01_表面形状
 62
     3
  0
LINE
  5
D6FC
  8
01_表面形状
 62
     3
 10
958.974571500466709
 20
-36.8451711805812465
 30
0.0
 11
957.5361688452668432
 21
-40.9747970627261822
 31
0.0
  0
ARC
  5
D6FD
  8
01_表面形状
 62
     3
 10
956.670143441466621
 20
-40.474797062726168
 30
0.0
 40
1.0
 50
263.8568607056033102
 51
329.9999999999994884
  0
LINE
  5
D6FE
  8
01_表面形状
 62
     3
 10
958.974571500466709
 20
-38.4834105822260995
 30
0.0
 11
958.974571500466709
 21
-38.651151247926073
 31
0.0
  0
LINE
  5
D6FF
  8
01_表面形状
 62
     3
 10
896.4745715004669364
 20
-20.9334105822261414
 30
0.0
 11
951.4745715004668227
 21
-20.9334105822261414
 31
0.0
  0
LINE
  5
D700
  8
01_表面形状
 62
     3
 10
896.4745715004669364
 20
-23.733410582226071
 30
0.0
 11
951.4745715004668227
 21
-23.7334105822261314
 31
0.0
  0
LINE
  5
D701
  8
01_表面形状
 62
     3
 10
968.9745715004669364
 20
-39.4834105822260995
 30
0.0
 11
968.9745715004669364
 21
-39.6237814154261017
 31
0.0
  0
LINE
  5
D702
  8
01_表面形状
 62
     3
 10
903.2245715004668227
 20
-14.5384286679108605
 30
0.0
 11
903.2245715004668227
 21
-20.9334105822261414
 31
0.0
  0
LINE
  5
D703
  8
01_表面形状
 62
     3
 10
944.724571500466709
 20
-20.9334105822261414
 30
0.0
 11
944.724571500466709
 21
-14.5384286679108605
 31
0.0
  0
POLYLINE
  5
D704
  8
01_表面形状
 62
     3
 66
     1
 10
0.0
 20
0.0
 30
0.0
  0
VERTEX
  5
DA0F
  8
01_表面形状
 62
     3
 10
941.9445986289938446
 20
-12.9334105822261396
 30
0.0
  0
VERTEX
  5
DA10
  8
01_表面形状
 62
     3
 10
906.0045443719396872
 20
-12.9334105822261396
 30
0.0
  0
SEQEND
  5
DA11
  8
01_表面形状
 62
     3
  0
LINE
  5
D705
  8
01_表面形状
 62
     3
 10
941.9445986289938446
 20
-12.9334105822261396
 30
0.0
 11
944.724571500466709
 21
-14.5384286679108605
 31
0.0
  0
LINE
  5
D706
  8
01_表面形状
 62
     3
 10
934.349571500466709
 20
-14.5384286679107504
 30
0.0
 11
934.349571500466709
 21
-20.9334105822261414
 31
0.0
  0
LINE
  5
D707
  8
01_表面形状
 62
     3
 10
913.5995715004670501
 20
-14.5384286679107504
 30
0.0
 11
913.5995715004670501
 21
-20.9334105822261414
 31
0.0
  0
ARC
  5
D708
  8
01_表面形状
 62
     3
 10
939.5370715004668227
 20
-22.1190514072006188
 30
0.0
 40
9.1856408249744543
 50
55.615752531954989
 51
124.3842474680386943
  0
ARC
  5
D709
  8
01_表面形状
 62
     3
 10
923.9745715004668227
 20
-47.2684467535969475
 30
0.0
 40
34.335036171370831
 50
72.4120462260023459
 51
107.5879537739976968
  0
LINE
  5
D70A
  8
01_表面形状
 62
     3
 10
906.0045443719396872
 20
-12.9334105822261396
 30
0.0
 11
903.2245715004668227
 21
-14.5384286679108605
 31
0.0
  0
ARC
  5
D70B
  8
01_表面形状
 62
     3
 10
908.4120715004669364
 20
-22.1190514072006188
 30
0.0
 40
9.1856408249744543
 50
55.615752531954989
 51
124.3842474680450039
  0
POLYLINE
  5
D70C
  8
01_表面形状
 62
     3
 66
     1
 10
0.0
 20
0.0
 30
0.0
  0
VERTEX
  5
DA12
  8
01_表面形状
 62
     3
 10
1051.1537210960880202
 20
-12.9334105822253207
 30
0.0
  0
VERTEX
  5
DA13
  8
01_表面形状
 62
     3
 10
1015.2136668390339764
 20
-12.9334105822253207
 30
0.0
  0
SEQEND
  5
DA14
  8
01_表面形状
 62
     3
  0
CIRCLE
  5
D70D
  8
01_表面形状
 62
     3
 10
923.9745715004668227
 20
42.2061177494058484
 30
0.0
 40
27.4499999999999886
  0
POLYLINE
  5
D70E
  8
01_表面形状
 62
     3
 66
     1
 10
0.0
 20
0.0
 30
0.0
 70
     1
  0
VERTEX
  5
DA15
  8
01_表面形状
 62
     3
 10
944.724571500466709
 20
42.206117749405891
 30
0.0
  0
VERTEX
  5
DA16
  8
01_表面形状
 62
     3
 10
934.349571500466709
 20
60.1761448779329129
 30
0.0
  0
VERTEX
  5
DA17
  8
01_表面形状
 62
     3
 10
913.5995715004668227
 20
60.1761448779329129
 30
0.0
  0
VERTEX
  5
DA18
  8
01_表面形状
 62
     3
 10
903.2245715004665954
 20
42.2061177494057915
 30
0.0
  0
VERTEX
  5
DA19
  8
01_表面形状
 62
     3
 10
913.5995715004668227
 20
24.2360906208787696
 30
0.0
  0
VERTEX
  5
DA1A
  8
01_表面形状
 62
     3
 10
934.349571500466709
 20
24.2360906208787696
 30
0.0
  0
SEQEND
  5
DA1B
  8
01_表面形状
 62
     3
  0
CIRCLE
  5
D70F
  8
01_表面形状
 62
     3
 10
923.9745715004668227
 20
42.2061177494058484
 30
0.0
 40
17.9700271285270503
  0
POLYLINE
  5
D710
  8
01_表面形状
 62
     3
 66
     1
 10
0.0
 20
0.0
 30
0.0
 70
     1
  0
VERTEX
  5
DA1C
  8
01_表面形状
 62
     3
 10
902.6012447472087388
 20
-43.7614894301343469
 30
0.0
  0
VERTEX
  5
DA1D
  8
01_表面形状
 62
     3
 10
908.3747474391052492
 20
-43.7614894301343469
 30
0.0
  0
VERTEX
  5
DA1E
  8
01_表面形状
 62
     3
 10
911.2614987850533907
 20
-38.7614894301343611
 30
0.0
  0
VERTEX
  5
DA1F
  8
01_表面形状
 62
     3
 10
908.3747474391052492
 20
-33.7614894301343611
 30
0.0
  0
VERTEX
  5
DA20
  8
01_表面形状
 62
     3
 10
902.6012447472087388
 20
-33.7614894301343327
 30
0.0
  0
VERTEX
  5
DA21
  8
01_表面形状
 62
     3
 10
899.7144934012608246
 20
-38.7614894301343327
 30
0.0
  0
SEQEND
  5
DA22
  8
01_表面形状
 62
     3
  0
CIRCLE
  5
D711
  8
01_表面形状
 62
     3
 10
905.4745715004669364
 20
-38.7554329963091391
 30
0.0
 40
4.9999999999999867
  0
LINE
  5
D712
  8
01_表面形状
 62
     3
 10
905.4745715004669364
 20
10.9961177494058404
 30
0.0
 11
910.5000892171092346
 21
10.9961177494058404
 31
0.0
  0
ARC
  5
D713
  8
01_表面形状
 62
     3
 10
909.8049471734391318
 20
11.6138729116347292
 30
0.0
 40
2.555270833107417
 50
55.6005266118987009
 51
124.3994733881012991
  0
ARC
  5
D714
  8
01_表面形状
 62
     3
 10
909.8049471734407234
 20
13.5513885825134501
 30
0.0
 40
2.555270833107417
 50
235.6005266118986015
 51
304.3994733880959984
  0
LINE
  5
D715
  8
01_表面形状
 62
     3
 10
910.4745715004665954
 20
10.9961177494060092
 30
0.0
 11
900.4745715004665954
 21
10.9961177494059008
 31
0.0
  0
LINE
  5
D716
  8
01_表面形状
 62
     3
 10
910.4745715004665954
 20
10.9961177494059505
 30
0.0
 11
900.4745715004665954
 21
10.9961177494058404
 31
0.0
  0
ARC
  5
D717
  8
01_表面形状
 62
     3
 10
901.1441958274914441
 20
11.6138729116346102
 30
0.0
 40
2.555270833107417
 50
55.6005266118987009
 51
124.3994733881012991
  0
ARC
  5
D718
  8
01_表面形状
 62
     3
 10
905.4745715004653448
 20
4.621576936210686
 30
0.0
 40
9.54756680853143
 50
72.4009153227637938
 51
107.5990846772362062
  0
LINE
  5
D71B
  8
01_表面形状
 62
     3
 10
900.4745715004665954
 20
10.9961177494059008
 30
0.0
 11
899.7005715004665944
 21
11.4429868577584308
 31
0.0
  0
ARC
  5
D71C
  8
01_表面形状
 62
     3
 10
901.1441958274923536
 20
13.55138858251334
 30
0.0
 40
2.555270833107417
 50
235.6005266118986015
 51
304.3994733880959984
  0
ARC
  5
D71D
  8
01_表面形状
 62
     3
 10
905.4745715004662543
 20
20.5436845579373291
 30
0.0
 40
9.54756680853143
 50
252.400915322763808
 51
287.599084677236192
  0
LINE
  5
D71E
  8
01_表面形状
 62
     3
 10
910.4745715004665954
 20
10.9961177494060092
 30
0.0
 11
911.2485715004665963
 21
11.4429868577589904
 31
0.0
  0
LINE
  5
D71F
  8
01_表面形状
 62
     3
 10
911.2480741923628784
 20
11.4426464366391301
 30
0.0
 11
911.2480741923628784
 21
13.7226150575080208
 31
0.0
  0
LINE
  5
D720
  8
01_表面形状
 62
     3
 10
908.3613228464148506
 20
11.4429868577587701
 30
0.0
 11
908.3613228464148506
 21
13.7222746363902104
 31
0.0
  0
LINE
  5
D721
  8
01_表面形状
 62
     3
 10
902.5878201545185675
 20
11.4429868577587097
 30
0.0
 11
902.5878201545185675
 21
13.7222746363885602
 31
0.0
  0
LINE
  5
D722
  8
01_表面形状
 62
     3
 10
899.7010688085705397
 20
11.4426464366390199
 30
0.0
 11
899.7010688085705397
 21
13.7226150575095502
 31
0.0
  0
LINE
  5
D723
  8
01_表面形状
 62
     3
 10
911.2480741923678806
 20
13.7226150575046102
 30
0.0
 11
909.7645715004667863
 21
15.2061177494058501
 31
0.0
  0
LINE
  5
D724
  8
01_表面形状
 62
     3
 10
899.7010688085705397
 20
13.7226150575095005
 30
0.0
 11
901.1845715004666317
 21
15.2061177494058501
 31
0.0
  0
LINE
  5
D725
  8
04_中心線
 62
   110
 10
905.4745715004669364
 20
22.7604872361082009
 30
0.0
 11
905.4745715004669364
 21
10.0357289742209392
 31
0.0
  0
LINE
  5
D726
  8
01_表面形状
 62
     3
 10
1015.2136668390339764
 20
-20.9334105822252887
 30
0.0
 11
1015.2136668390339764
 21
-12.9334105822253207
 31
0.0
  0
LINE
  5
D727
  8
01_表面形状
 62
     3
 10
1051.1537210960880202
 20
-20.9334105822252887
 30
0.0
 11
1051.1537210960880202
 21
-12.9334105822253207
 31
0.0
  0
LINE
  5
D728
  8
01_表面形状
 62
     3
 10
1033.1836939675620215
 20
-20.9334105822252887
 30
0.0
 11
1033.1836939675620215
 21
-14.5384286679101198
 31
0.0
  0
ARC
  5
D729
  8
01_表面形状
 62
     3
 10
1024.1986804032981127
 20
-38.8836894362381216
 30
0.0
 40
25.9503793927543285
 50
69.7425994182945743
 51
110.2574005817053973
  0
ARC
  5
D72A
  8
01_表面形状
 62
     3
 10
1042.1687075318250209
 20
-38.873875274513523
 30
0.0
 40
25.9411724926388416
 50
69.735094235606951
 51
110.2649057643930064
  0
POLYLINE
  5
D72B
  8
01_表面形状
 62
     3
 66
     1
 10
0.0
 20
0.0
 30
0.0
 70
     1
  0
VERTEX
  5
DA23
  8
01_表面形状
 62
     3
 10
1006.4336939675609983
 20
-83.177530283048398
 30
0.0
  0
VERTEX
  5
DA24
  8
01_表面形状
 62
     3
 10
1033.183693967561112
 20
-98.6216499838711513
 30
0.0
  0
VERTEX
  5
DA25
  8
01_表面形状
 62
     3
 10
1059.933693967561112
 20
-83.1775302830488954
 30
0.0
  0
VERTEX
  5
DA26
  8
01_表面形状
 62
     3
 10
1059.9336939675620215
 20
-52.2892908814039288
 30
0.0
  0
VERTEX
  5
DA27
  8
01_表面形状
 62
     3
 10
1033.1836939675620215
 20
-36.8451711805811897
 30
0.0
  0
VERTEX
  5
DA28
  8
01_表面形状
 62
     3
 10
1006.4336939675609983
 20
-52.2892908814033888
 30
0.0
  0
SEQEND
  5
DA29
  8
01_表面形状
 62
     3
  0
CIRCLE
  5
D72C
  8
01_表面形状
 62
     3
 10
1033.1836939675620215
 20
-67.7334105822261847
 30
0.0
 40
22.4225010000000005
  0
CIRCLE
  5
D72D
  8
01_表面形状
 62
     3
 10
1033.1836939675620215
 20
-67.7334105822261847
 30
0.0
 40
23.9015050000000002
  0
LINE
  5
D72E
  8
01_表面形状
 62
     3
 10
879.9745715004670501
 20
-36.8451711805812181
 30
0.0
 11
889.9745715004669364
 21
-36.8451711805812181
 31
0.0
  0
LINE
  5
D72F
  8
01_表面形状
 62
     3
 10
958.974571500466709
 20
-36.8451711805812465
 30
0.0
 11
968.9745715004669364
 21
-36.8451711805812181
 31
0.0
  0
LINE
  5
D730
  8
01_表面形状
 62
     3
 10
879.9745715004670501
 20
-52.2892908814034172
 30
0.0
 11
889.9745715004669364
 21
-52.2892908814034172
 31
0.0
  0
LINE
  5
D731
  8
01_表面形状
 62
     3
 10
958.974571500466709
 20
-52.2892908814034314
 30
0.0
 11
968.9745715004669364
 21
-52.2892908814034314
 31
0.0
  0
LINE
  5
D732
  8
01_表面形状
 62
     3
 10
879.9745715004670501
 20
-83.1775302830484264
 30
0.0
 11
889.9745715004669364
 21
-83.177530283048398
 31
0.0
  0
LINE
  5
D733
  8
01_表面形状
 62
     3
 10
958.974571500466709
 20
-83.177530283048398
 30
0.0
 11
968.9745715004669364
 21
-83.1775302830484264
 31
0.0
  0
LINE
  5
D734
  8
01_表面形状
 62
     3
 10
879.9745715004670501
 20
-98.6216499838711513
 30
0.0
 11
889.9745715004669364
 21
-98.6216499838711513
 31
0.0
  0
LINE
  5
D735
  8
01_表面形状
 62
     3
 10
958.974571500466709
 20
-98.6216499838711513
 30
0.0
 11
968.9745715004669364
 21
-98.6216499838711513
 31
0.0
  0
LINE
  5
D736
  8
01_表面形状
 62
     3
 10
968.9745715004669364
 20
-98.6216499838711513
 30
0.0
 11
968.9745715004669364
 21
-36.8451711805812181
 31
0.0
  0
LINE
  5
D737
  8
01_表面形状
 62
     3
 10
958.974571500466709
 20
-98.6216499838711513
 30
0.0
 11
958.974571500466709
 21
-36.8451711805812181
 31
0.0
  0
LINE
  5
D738
  8
01_表面形状
 62
     3
 10
879.9745715004670501
 20
-98.6216499838711513
 30
0.0
 11
879.9745715004670501
 21
-36.8451711805812181
 31
0.0
  0
LINE
  5
D739
  8
01_表面形状
 62
     3
 10
889.9745715004669364
 20
-98.6216499838711513
 30
0.0
 11
889.9745715004669364
 21
-36.8451711805812181
 31
0.0
  0
LINE
  5
D73A
  8
01_表面形状
 62
     3
 10
968.9745715004669364
 20
15.4561177494044806
 30
0.0
 11
968.9745715004669364
 21
68.9561177494072126
 31
0.0
  0
LINE
  5
D73B
  8
01_表面形状
 62
     3
 10
957.5311958274935478
 20
15.4561177494047097
 30
0.0
 11
957.5311958274935478
 21
68.95611774940744
 31
0.0
  0
LINE
  5
D73C
  8
01_表面形状
 62
     3
 10
891.4179471734397566
 20
15.4561177494047097
 30
0.0
 11
891.4179471734397566
 21
68.95611774940744
 31
0.0
  0
LINE
  5
D73D
  8
01_表面形状
 62
     3
 10
879.9745715004670501
 20
15.4561177494044806
 30
0.0
 11
879.9745715004670501
 21
68.9561177494072126
 31
0.0
  0
LINE
  5
D73E
  8
01_表面形状
 62
     3
 10
879.9745715004670501
 20
42.2061177494058484
 30
0.0
 11
891.4179471734397566
 21
42.2061177494060615
 31
0.0
  0
LINE
  5
D73F
  8
01_表面形状
 62
     3
 10
957.5311958274935478
 20
42.2061177494060615
 30
0.0
 11
968.9745715004669364
 21
42.2061177494058484
 31
0.0
  0
LINE
  5
D740
  8
01_表面形状
 62
     3
 10
1001.9736939675619851
 20
-33.7334105822267318
 30
0.0
 11
1001.9736939675619851
 21
-43.7334105822264902
 31
0.0
  0
LINE
  5
D741
  8
01_表面形状
 62
     3
 10
1001.9736939675619851
 20
-43.7334105822264902
 30
0.0
 11
1001.9736939675619851
 21
-33.7334105822264974
 31
0.0
  0
LINE
  5
D742
  8
04_中心線
 62
   110
 10
999.1538180655876431
 20
-38.7334105822263268
 30
0.0
 11
1011.8785763274739793
 21
-38.7334105822263268
 31
0.0
  0
LINE
  5
D743
  8
01_表面形状
 62
     3
 10
1001.9736939675609619
 20
-33.7334105822265471
 30
0.0
 11
1001.9736939675619851
 21
-43.73341058222627
 31
0.0
  0
LINE
  5
D744
  8
01_表面形状
 62
     3
 10
1001.9736939675619851
 20
-43.7334105822263197
 30
0.0
 11
1001.9736939675619851
 21
-33.7334105822263268
 31
0.0
  0
LINE
  5
D745
  8
01_表面形状
 62
     3
 10
1001.9736939675619851
 20
-43.7334105822261492
 30
0.0
 11
1003.8255814470260248
 21
-43.7334105822261279
 31
0.0
  0
LINE
  5
D746
  8
01_表面形状
 62
     3
 10
1001.9736939675609619
 20
-33.7334105822261634
 30
0.0
 11
1005.2309897940499468
 21
-33.7334105822261634
 31
0.0
  0
ARC
  5
D747
  8
01_表面形状
 62
     3
 10
1009.1863120899480464
 20
-41.2334105822262131
 30
0.0
 40
7.2128607168649781
 50
159.7203133156143053
 51
200.2796866843856094
  0
ARC
  5
D748
  8
01_表面形状
 62
     3
 10
1009.1890672358009624
 20
-36.23341058222627
 30
0.0
 40
7.2154451395875938
 50
159.7278962371507021
 51
200.2721037628492127
  0
LINE
  5
D749
  8
01_表面形状
 62
     3
 10
1002.4205630759139467
 20
-38.73341058222627
 30
0.0
 11
1005.6607461552720224
 21
-38.73341058222627
 31
0.0
  0
TEXT
  5
D74A
  8
12_文字
 62
   110
 10
880.1767746661389538
 20
-130.1565541146335931
 30
0.0
 40
4.1671809999999976
  1
        SWING CHECK VALVE 11/2
 41
0.9598549999999999
  7
MX_NOTE_STANDARD
 11
880.1767746661389538
 21
-128.0729636146336929
 31
0.0
 73
     2
  0
TEXT
  5
D74B
  8
12_文字
 62
   110
 10
880.1438746661389132
 20
-146.1565541146337068
 30
0.0
 40
4.1671809999999976
  1
TOA
 41
0.9124859999999999
  7
MX_NOTE_STANDARD
 11
880.1438746661389132
 21
-144.0729636146336929
 31
0.0
 73
     2
  0
TEXT
  5
D74C
  8
12_文字
 62
   110
 10
880.2362966661388555
 20
-138.1565541146335931
 30
0.0
 40
4.1671809999999976
  1
FIG   TS11/2
 41
1.0455570000000001
  7
MX_NOTE_STANDARD
 11
880.2362966661388555
 21
-136.0729636146336929
 31
0.0
 73
     2
  0
TEXT
  5
D74D
  8
12_文字
 62
   110
 10
880.1460156661389647
 20
-122.1565541146337068
 30
0.0
 40
4.1671809999999976
  1
NAME  CLASS 125 CAST BRASS
 41
0.9155689999999999
  7
MX_NOTE_STANDARD
 11
880.1460156661389647
 21
-120.0729636146336929
 31
0.0
 73
     2
  0
LINE
  5
D74E
  8
01_表面形状
 62
     3
 10
1005.6836939675609983
 20
-20.9334105822261414
 30
0.0
 11
1060.6836939675620215
 21
-20.9334105822261414
 31
0.0
  0
LINE
  5
D74F
  8
01_表面形状
 62
     3
 10
1005.6836939675620215
 20
-23.733410582226071
 30
0.0
 11
1060.6836939675620215
 21
-23.7334105822261314
 31
0.0
  0
LINE
  5
D8FC
  8
01_表面形状
 62
     3
 10
932.2208616000557413
 20
-64.0834106041167786
 30
0.0
 11
932.2231032489738709
 21
-64.0834106041167786
 31
0.0
  0
LINE
  5
D8FD
  8
01_表面形状
 62
     3
 10
929.9676698128492944
 20
-70.4709105658081398
 30
0.0
 11
933.7786173631155862
 21
-70.4709105658085093
 31
0.0
  0
LINE
  5
D8FE
  8
01_表面形状
 62
     3
 10
931.4013665950616314
 20
-69.5584105712808594
 30
0.0
 11
932.866117368587993
 21
-69.558410571281172
 31
0.0
  0
LINE
  5
D8FF
  8
01_表面形状
 62
     3
 10
932.2208616000557413
 20
-65.9084105931714248
 30
0.0
 11
932.2231032489731888
 21
-65.9084105931714248
 31
0.0
  0
LINE
  5
D900
  8
01_表面形状
 62
     3
 10
929.1606154155607555
 20
-66.4316200913397097
 30
0.0
 11
928.1415729926876566
 21
-70.2347381885686275
 31
0.0
  0
LINE
  5
D901
  8
01_表面形状
 62
     3
 10
930.9234300379656588
 20
-66.903964845819047
 30
0.0
 11
930.5199592838588387
 21
-68.4097381995138534
 31
0.0
  0
LINE
  5
D902
  8
01_表面形状
 62
     3
 10
929.9676698128492944
 20
-70.4709105658081398
 30
0.0
 11
929.9043876150932419
 21
-70.7070829430480217
 31
0.0
  0
LINE
  5
D903
  8
01_表面形状
 62
     3
 10
935.6036173521698629
 20
-67.2516105851159125
 30
0.0
 11
935.6036173521698629
 21
-70.4709105658085093
 31
0.0
  0
LINE
  5
D904
  8
01_表面形状
 62
     3
 10
933.7786173631155862
 20
-67.2516105851159125
 30
0.0
 11
933.7786173631155862
 21
-68.6459105767536784
 31
0.0
  0
ARC
  5
D905
  8
01_表面形状
 62
     3
 10
929.0229803038903356
 20
-70.4709105658081398
 30
0.0
 40
0.9124999945273424
 50
165.0000000000021885
 51
344.9999999999881766
  0
ARC
  5
D906
  8
01_表面形状
 62
     3
 10
934.6911173576428382
 20
-70.4709105658085093
 30
0.0
 40
0.9124999945273424
 50
180.0
 51
0.0
  0
ARC
  5
D907
  8
01_表面形状
 62
     3
 10
931.4013665950616314
 20
-68.6459105767535505
 30
0.0
 40
0.9124999945273424
 50
165.0000000000021885
 51
270.0
  0
ARC
  5
D908
  8
01_表面形状
 62
     3
 10
932.866117368587993
 20
-68.6459105767537778
 30
0.0
 40
0.9124999945273424
 50
270.0
 51
0.0000000000032569
  0
LINE
  5
D909
  8
01_表面形状
 62
     3
 10
913.2580256432913757
 20
-65.9084105931709843
 30
0.0
 11
914.18945676861415
 21
-65.9084105931709843
 31
0.0
  0
LINE
  5
D90A
  8
01_表面形状
 62
     3
 10
917.4924659148288129
 20
-65.9084105931709843
 30
0.0
 11
918.926162697041832
 21
-65.9084105931709843
 31
0.0
  0
ARC
  5
D90B
  8
01_表面形状
 62
     3
 10
917.4924659148288129
 20
-66.8209105876984211
 30
0.0
 40
0.9124999945273424
 50
90.0
 51
165.0000000000003979
  0
ARC
  5
D90C
  8
01_表面形状
 62
     3
 10
914.18945676861415
 20
-66.4559105898875089
 30
0.0
 40
0.5474999967164055
 50
345.0000000000009095
 51
90.0
  0
ARC
  5
D90D
  8
01_表面形状
 62
     3
 10
932.3104853917143373
 20
-67.368410584414903
 30
0.0
 40
3.2849999802984331
 50
89.9290824560212769
 51
165.3312556800401865
  0
ARC
  5
D90E
  8
01_表面形状
 62
     3
 10
932.3186173718714826
 20
-67.368410584414903
 30
0.0
 40
3.2849999802984331
 50
359.9999999999902229
 51
90.0709175439656633
  0
ARC
  5
D90F
  8
01_表面形状
 62
     3
 10
932.3104853917146784
 20
-67.3684105844152015
 30
0.0
 40
1.459999991243746
 50
89.8404353605604769
 51
165.4968843844492028
  0
ARC
  5
D910
  8
01_表面形状
 62
     3
 10
932.3186173718714826
 20
-67.3684105844152015
 30
0.0
 40
1.459999991243746
 50
0.0
 51
90.1595646394394947
  0
LINE
  5
D911
  8
01_表面形状
 62
     3
 10
923.6193419092959402
 20
-64.0834106041167786
 30
0.0
 11
925.8021252911654528
 21
-64.0834106041167786
 31
0.0
  0
LINE
  5
D912
  8
01_表面形状
 62
     3
 10
921.9967072252919706
 20
-71.383410560335534
 30
0.0
 11
924.1794906071615969
 21
-71.383410560335534
 31
0.0
  0
LINE
  5
D913
  8
01_表面形状
 62
     3
 10
923.1792353633672974
 20
-70.4709105658081398
 30
0.0
 11
923.3748382726687396
 21
-70.4709105658081398
 31
0.0
  0
ARC
  5
D914
  8
01_表面形状
 62
     3
 10
923.3748382726687396
 20
-68.280910578942553
 30
0.0
 40
2.189999986865621
 50
270.0
 51
345.0000000000025011
  0
LINE
  5
D915
  8
01_表面形状
 62
     3
 10
923.6193419092959402
 20
-64.0834106041167786
 30
0.0
 11
925.8021252911654528
 21
-64.0834106041167786
 31
0.0
  0
ARC
  5
D916
  8
01_表面形状
 62
     3
 10
925.8021252911654528
 20
-66.2734105909824223
 30
0.0
 40
2.189999986865621
 50
345.0000000000009095
 51
90.0
  0
ARC
  5
D917
  8
01_表面形状
 62
     3
 10
923.6193419092959402
 20
-67.3684105844152015
 30
0.0
 40
3.2849999802984331
 50
90.0
 51
165.0000000000003979
  0
LINE
  5
D918
  8
01_表面形状
 62
     3
 10
924.4239942437887976
 20
-64.9959105986440875
 30
0.0
 11
924.619597153089785
 21
-64.9959105986440875
 31
0.0
  0
ARC
  5
D919
  8
01_表面形状
 62
     3
 10
924.4239942437887976
 20
-67.1859105855096459
 30
0.0
 40
2.189999986865621
 50
90.0
 51
165.0000000000003979
  0
LINE
  5
D91A
  8
01_表面形状
 62
     3
 10
920.4462755889666141
 20
-66.5181900263525705
 30
0.0
 11
919.8813296784052227
 21
-68.6265968680949356
 31
0.0
  0
ARC
  5
D91B
  8
01_表面形状
 62
     3
 10
921.9967072252919706
 20
-69.1934105734698903
 30
0.0
 40
2.189999986865621
 50
165.0000000000003979
 51
270.0
  0
LINE
  5
D91C
  8
01_表面形状
 62
     3
 10
922.3086166969027317
 20
-66.6190968801343217
 30
0.0
 11
921.7689836654438977
 21
-68.6330347709807995
 31
0.0
  0
ARC
  5
D91D
  8
01_表面形状
 62
     3
 10
923.1792353633672974
 20
-69.0109105745644626
 30
0.0
 40
1.459999991243746
 50
165.0000000000003979
 51
270.0
  0
LINE
  5
D91E
  8
01_表面形状
 62
     3
 10
927.9175028380520871
 20
-66.8402242963575333
 30
0.0
 11
927.3525569274911504
 21
-68.94863113809987
 31
0.0
  0
ARC
  5
D91F
  8
01_表面形状
 62
     3
 10
924.1794906071615969
 20
-68.0984105800370685
 30
0.0
 40
3.2849999802984331
 50
270.0
 51
345.0000000000009095
  0
LINE
  5
D920
  8
01_表面形状
 62
     3
 10
926.0298488510138668
 20
-66.8337863934712431
 30
0.0
 11
925.4902158195551465
 21
-68.8477242843175929
 31
0.0
  0
ARC
  5
D921
  8
01_表面形状
 62
     3
 10
924.619597153089785
 20
-66.4559105898879068
 30
0.0
 40
1.459999991243746
 50
345.0000000000025011
 51
90.0
  0
LINE
  5
D922
  8
01_表面形状
 62
     3
 10
932.2208616000557413
 20
-64.0834106041167786
 30
0.0
 11
932.2231032489738709
 21
-64.0834106041167786
 31
0.0
  0
LINE
  5
D923
  8
01_表面形状
 62
     3
 10
929.9676698128492944
 20
-70.4709105658081398
 30
0.0
 11
933.7786173631155862
 21
-70.4709105658085093
 31
0.0
  0
LINE
  5
D924
  8
01_表面形状
 62
     3
 10
931.4013665950616314
 20
-69.5584105712808594
 30
0.0
 11
932.866117368587993
 21
-69.558410571281172
 31
0.0
  0
LINE
  5
D925
  8
01_表面形状
 62
     3
 10
932.2208616000557413
 20
-65.9084105931714248
 30
0.0
 11
932.2231032489731888
 21
-65.9084105931714248
 31
0.0
  0
LINE
  5
D926
  8
01_表面形状
 62
     3
 10
929.1374190713844428
 20
-66.5181900263522721
 30
0.0
 11
928.1415729926876566
 21
-70.2347381885686275
 31
0.0
  0
LINE
  5
D927
  8
01_表面形状
 62
     3
 10
930.9234300379656588
 20
-66.903964845819047
 30
0.0
 11
930.5199592838588387
 21
-68.4097381995139528
 31
0.0
  0
LINE
  5
D928
  8
01_表面形状
 62
     3
 10
929.9676698128492944
 20
-70.4709105658081398
 30
0.0
 11
929.9043876150932419
 21
-70.7070829430480217
 31
0.0
  0
LINE
  5
D929
  8
01_表面形状
 62
     3
 10
935.6036173521698629
 20
-67.2516105851159125
 30
0.0
 11
935.6036173521698629
 21
-70.4709105658087083
 31
0.0
  0
LINE
  5
D92A
  8
01_表面形状
 62
     3
 10
933.7786173631155862
 20
-67.3684105844152015
 30
0.0
 11
933.7786173631155862
 21
-68.6459105767536784
 31
0.0
  0
ARC
  5
D92B
  8
01_表面形状
 62
     3
 10
929.0229803038903356
 20
-70.4709105658081398
 30
0.0
 40
0.9124999945273424
 50
165.0000000000021885
 51
344.9999999999881766
  0
ARC
  5
D92C
  8
01_表面形状
 62
     3
 10
934.6911173576428382
 20
-70.4709105658085093
 30
0.0
 40
0.9124999945273424
 50
180.0
 51
0.0
  0
ARC
  5
D92D
  8
01_表面形状
 62
     3
 10
931.4013665950616314
 20
-68.6459105767535505
 30
0.0
 40
0.9124999945273424
 50
165.0000000000021885
 51
270.0
  0
ARC
  5
D92E
  8
01_表面形状
 62
     3
 10
932.866117368587993
 20
-68.6459105767538915
 30
0.0
 40
0.9124999945273424
 50
270.0
 51
0.0000000000032569
  0
ARC
  5
D92F
  8
01_表面形状
 62
     3
 10
932.3104853917143373
 20
-67.368410584414903
 30
0.0
 40
3.2849999802984331
 50
89.9290824560212769
 51
165.3312556800401865
  0
ARC
  5
D930
  8
01_表面形状
 62
     3
 10
932.3186173718714826
 20
-67.368410584414903
 30
0.0
 40
3.2849999802984331
 50
359.9999999999902229
 51
90.0709175439656633
  0
ARC
  5
D931
  8
01_表面形状
 62
     3
 10
932.3104853917146784
 20
-67.3684105844152015
 30
0.0
 40
1.459999991243746
 50
89.8404353605604769
 51
165.4968843844492028
  0
ARC
  5
D932
  8
01_表面形状
 62
     3
 10
932.3186173718714826
 20
-67.3684105844152015
 30
0.0
 40
1.459999991243746
 50
0.0
 51
90.1595646394394947
  0
LINE
  5
D933
  8
01_表面形状
 62
     3
 10
913.2580256432913757
 20
-64.0834106041167786
 30
0.0
 11
918.926162697041832
 21
-64.0834106041167786
 31
0.0
  0
LINE
  5
D934
  8
01_表面形状
 62
     3
 10
916.6110586036263612
 20
-66.5847382104592214
 30
0.0
 11
915.5064796616063632
 21
-70.7070829430478796
 31
0.0
  0
LINE
  5
D935
  8
01_表面形状
 62
     3
 10
916.6110586036263612
 20
-66.5847382104592214
 30
0.0
 11
915.5064796616063632
 21
-70.7070829430478796
 31
0.0
  0
LINE
  5
D936
  8
01_表面形状
 62
     3
 10
916.6110586036263612
 20
-66.584738210458795
 30
0.0
 11
915.5064796616063632
 21
-70.7070829430478796
 31
0.0
  0
ARC
  5
D937
  8
01_表面形状
 62
     3
 10
913.2580256432913757
 20
-64.9959105986440875
 30
0.0
 40
0.9124999945273424
 50
90.0
 51
270.0
  0
ARC
  5
D938
  8
01_表面形状
 62
     3
 10
918.926162697041832
 20
-64.9959105986440875
 30
0.0
 40
0.9124999945273424
 50
270.0
 51
90.0
  0
ARC
  5
D939
  8
01_表面形状
 62
     3
 10
914.6250723504034568
 20
-70.4709105658081398
 30
0.0
 40
0.9124999945273424
 50
164.2944179854783044
 51
345.0000000000009095
  0
LINE
  5
D93A
  8
01_表面形状
 62
     3
 10
914.7183011553363485
 20
-66.5976140162313612
 30
0.0
 11
913.7408235468069506
 21
-70.2456101145217531
 31
0.0
  0
VIEWPORT
  5
542
 67
     1
  8
0
 10
185.6233038915470104
 20
148.4223392912986128
 30
0.0
 40
450.4060917083240838
 41
309.2814998667927853
 68
     1
 69
     1
1001
ACAD
1000
MVIEW
1002
{
1070
    16
1010
0.0
1020
0.0
1030
0.0
1010
0.0
1020
0.0
1030
1.0
1040
0.0
1040
309.2814998667927853
1040
185.6233038915470104
1040
148.4223392912986128
1040
50.0
1040
0.0
1040
0.0
1070
     0
1070
  1000
1070
     1
1070
     1
1070
     0
1070
     0
1070
     0
1070
     0
1040
0.0
1040
0.0
1040
0.0
1040
10.0
1040
10.0
1040
10.0
1040
10.0
1070
     0
1002
{
1002
}
1002
}
  0
ENDSEC
  0
EOF
