  0
SECTION
  2
HEADER
  9
$ACADVER
  1
AC1009
  9
$INSBASE
 10
0.0
 20
0.0
 30
0.0
  9
$EXTMIN
 10
746.5082907913075587
 20
-170.9256682803959109
 30
-0.0000000349181948
  9
$EXTMAX
 10
928.0446958766716534
 20
55.5210352957193365
 30
0.0000000814935747
  9
$LIMMIN
 10
0.0
 20
0.0
  9
$LIMMAX
 10
297.0
 20
210.0
  9
$ORTHOMODE
 70
     0
  9
$REGENMODE
 70
     1
  9
$FILLMODE
 70
     1
  9
$QTEXTMODE
 70
     0
  9
$MIRRTEXT
 70
     0
  9
$DRAGMODE
 70
     2
  9
$LTSCALE
 40
0.4
  9
$OSMODE
 70
  1447
  9
$ATTMODE
 70
     1
  9
$TEXTSIZE
 40
5.0
  9
$TRACEWID
 40
1.0
  9
$TEXTSTYLE
  7
STANDARD
  9
$CLAYER
  8
01_表面形状
  9
$CELTYPE
  6
BYLAYER
  9
$CECOLOR
 62
   256
  9
$DIMSCALE
 40
1.0
  9
$DIMASZ
 40
2.5
  9
$DIMEXO
 40
1.0
  9
$DIMDLI
 40
10.0
  9
$DIMRND
 40
0.0
  9
$DIMDLE
 40
0.0
  9
$DIMEXE
 40
1.0
  9
$DIMTP
 40
0.1
  9
$DIMTM
 40
0.1
  9
$DIMTXT
 40
2.5
  9
$DIMCEN
 40
0.0
  9
$DIMTSZ
 40
0.0
  9
$DIMTOL
 70
     0
  9
$DIMLIM
 70
     0
  9
$DIMTIH
 70
     0
  9
$DIMTOH
 70
     0
  9
$DIMSE1
 70
     0
  9
$DIMSE2
 70
     0
  9
$DIMTAD
 70
     3
  9
$DIMZIN
 70
     8
  9
$DIMBLK
  1

  9
$DIMASO
 70
     1
  9
$DIMSHO
 70
     1
  9
$DIMPOST
  1

  9
$DIMAPOST
  1

  9
$DIMALT
 70
     0
  9
$DIMALTD
 70
     2
  9
$DIMALTF
 40
25.3999999999999986
  9
$DIMLFAC
 40
1.0
  9
$DIMTOFL
 70
     1
  9
$DIMTVP
 40
0.0
  9
$DIMTIX
 70
     0
  9
$DIMSOXD
 70
     0
  9
$DIMSAH
 70
     0
  9
$DIMBLK1
  1

  9
$DIMBLK2
  1

  9
$DIMSTYLE
  2
部品図用_1_1
  9
$DIMCLRD
 70
   256
  9
$DIMCLRE
 70
   256
  9
$DIMCLRT
 70
   256
  9
$DIMTFAC
 40
0.7
  9
$DIMGAP
 40
1.0
  9
$LUNITS
 70
     2
  9
$LUPREC
 70
     2
  9
$SKETCHINC
 40
1.0
  9
$FILLETRAD
 40
0.0
  9
$AUNITS
 70
     1
  9
$AUPREC
 70
     3
  9
$MENU
  1
.
  9
$ELEVATION
 40
0.0
  9
$PELEVATION
 40
0.0
  9
$THICKNESS
 40
0.0
  9
$LIMCHECK
 70
     0
  9
$BLIPMODE
 70
     0
  9
$CHAMFERA
 40
0.0
  9
$CHAMFERB
 40
0.0
  9
$SKPOLY
 70
     0
  9
$TDCREATE
 40
2457049.1084374999627471
  9
$TDUPDATE
 40
2460132.4778703711926937
  9
$TDINDWG
 40
0.1548425463
  9
$TDUSRTIMER
 40
0.1548425463
  9
$USRTIMER
 70
     1
  9
$ANGBASE
 50
0.0
  9
$ANGDIR
 70
     0
  9
$PDMODE
 70
     3
  9
$PDSIZE
 40
0.0
  9
$PLINEWID
 40
0.0
  9
$COORDS
 70
     1
  9
$SPLFRAME
 70
     0
  9
$SPLINETYPE
 70
     6
  9
$SPLINESEGS
 70
     8
  9
$ATTDIA
 70
     1
  9
$ATTREQ
 70
     1
  9
$HANDLING
 70
     1
  9
$HANDSEED
  5
DAAD
  9
$SURFTAB1
 70
     6
  9
$SURFTAB2
 70
     6
  9
$SURFTYPE
 70
     6
  9
$SURFU
 70
     6
  9
$SURFV
 70
     6
  9
$UCSNAME
  2

  9
$UCSORG
 10
0.0
 20
0.0
 30
0.0
  9
$UCSXDIR
 10
1.0
 20
0.0
 30
0.0
  9
$UCSYDIR
 10
0.0
 20
1.0
 30
0.0
  9
$PUCSNAME
  2

  9
$PUCSORG
 10
0.0
 20
0.0
 30
0.0
  9
$PUCSXDIR
 10
1.0
 20
0.0
 30
0.0
  9
$PUCSYDIR
 10
0.0
 20
1.0
 30
0.0
  9
$USERI1
 70
     0
  9
$USERI2
 70
     0
  9
$USERI3
 70
     0
  9
$USERI4
 70
     0
  9
$USERI5
 70
     0
  9
$USERR1
 40
0.0
  9
$USERR2
 40
0.0
  9
$USERR3
 40
0.0
  9
$USERR4
 40
0.0
  9
$USERR5
 40
0.0
  9
$WORLDVIEW
 70
     1
  9
$SHADEDGE
 70
     3
  9
$SHADEDIF
 70
    70
  9
$TILEMODE
 70
     1
  9
$MAXACTVP
 70
    64
  9
$PLIMCHECK
 70
     0
  9
$PEXTMIN
 10
1.0000000000000000E+20
 20
1.0000000000000000E+20
 30
1.0000000000000000E+20
  9
$PEXTMAX
 10
-1.0000000000000000E+20
 20
-1.0000000000000000E+20
 30
-1.0000000000000000E+20
  9
$PLIMMIN
 10
-5.873748779296875
 20
-5.8737497329711914
  9
$PLIMMAX
 10
291.1369018554688068
 20
204.0995779037475018
  9
$UNITMODE
 70
     0
  9
$VISRETAIN
 70
     1
  9
$PLINEGEN
 70
     0
  9
$PSLTSCALE
 70
     1
  0
ENDSEC
  0
SECTION
  2
TABLES
  0
TABLE
  2
VPORT
 70
     1
  0
VPORT
  2
*ACTIVE
 70
     0
 10
0.0
 20
0.0
 11
1.0
 21
1.0
 12
837.2764933339897198
 22
-57.7023164923382978
 13
0.0
 23
0.0
 14
10.0
 24
10.0
 15
10.0
 25
10.0
 16
0.0
 26
0.0
 36
1.0
 17
0.0
 27
0.0
 37
0.0
 40
228.1562798425759127
 41
1.765830346475507
 42
50.0
 43
0.0
 44
0.0
 50
0.0
 51
0.0
 71
     0
 72
  1000
 73
     1
 74
     3
 75
     0
 76
     0
 77
     0
 78
     0
  0
ENDTAB
  0
TABLE
  2
LTYPE
 70
     3
  0
LTYPE
  2
CONTINUOUS
 70
     0
  3
Solid line
 72
    65
 73
     0
 40
0.0
  0
LTYPE
  2
CENTER
 70
     0
  3
Center ____ _ ____ _ ____ _ ____ _ ____ _ ____
 72
    65
 73
     4
 40
50.7999999999999972
 49
31.75
 49
-6.3499999999999979
 49
6.3499999999999979
 49
-6.3499999999999979
  0
ENDTAB
  0
TABLE
  2
LAYER
 70
     6
  0
LAYER
  2
0
 70
     0
 62
     7
  6
CONTINUOUS
  0
LAYER
  2
01_表面形状
 70
     0
 62
     7
  6
CONTINUOUS
  0
LAYER
  2
04_中心線
 70
     0
 62
     4
  6
CENTER
  0
LAYER
  2
12_文字
 70
     0
 62
     2
  6
CONTINUOUS
  0
LAYER
  2
DEFPOINTS
 70
     0
 62
     7
  6
CONTINUOUS
  0
ENDTAB
  0
TABLE
  2
STYLE
 70
     2
  0
STYLE
  2
STANDARD
 70
     0
 40
0.0
 41
1.0
 50
0.0
 71
     0
 42
5.0
  3
isocp.shx
  4
extfont2.shx
  0
STYLE
  2
MX_NOTE_STANDARD
 70
     0
 40
0.0
 41
1.0
 50
0.0
 71
     0
 42
3.299999999999998
  3
txt.shx
  4
extfont.shx
  0
ENDTAB
  0
TABLE
  2
VIEW
 70
     0
  0
ENDTAB
  0
TABLE
  2
UCS
 70
     0
  0
ENDTAB
  0
TABLE
  2
APPID
 70
    38
  0
APPID
  2
ACAD
 70
     0
  0
APPID
  2
ACAECLAYERSTANDARD
 70
     0
  0
APPID
  2
ACAD_PSEXT
 70
     0
  0
APPID
  2
ACAD_EXEMPT_FROM_CAD_STANDARDS
 70
     0
  0
APPID
  2
GENIUS_GENODEF_13
 70
     0
  0
APPID
  2
GENIUS_GENOBJ-N-CEN_13
 70
     0
  0
APPID
  2
GENIUS_GENCEN_19
 70
     0
  0
APPID
  2
GENIUS_GENTRA_14
 70
     0
  0
APPID
  2
GENIUS_GENOREF_13
 70
     0
  0
APPID
  2
GENIUS_GENSCREG_15
 70
     0
  0
APPID
  2
GENIUS_GENOBJ-N-SDF_13
 70
     0
  0
APPID
  2
GENIUS_GENOBJ-N-LIB_13
 70
     0
  0
APPID
  2
GENIUS_GENOBJ-N-RSBK_13
 70
     0
  0
APPID
  2
GENIUS_GENSCALE_13
 70
     0
  0
APPID
  2
GENIUS_AMGTXT_16
 70
     0
  0
APPID
  2
GENIUS_GENFIL_13
 70
     0
  0
APPID
  2
GENIUS_GENOBJ-N-CHA_13
 70
     0
  0
APPID
  2
GENIUS_GENOBJ-N-FIL_13
 70
     0
  0
APPID
  2
GENIUS_GENDTOL_13
 70
     0
  0
APPID
  2
ACAD_DIMASSOC_DIMLFAC
 70
     0
  0
APPID
  2
ACAD_DIMASSOC_CALC_DIMLFAC
 70
     0
  0
APPID
  2
ACAD_DIMASSOC_OVERRIDDEN_D
 70
     0
  0
APPID
  2
GENIUS_GENOBJ-N-ZOO_13
 70
     0
  0
APPID
  2
GENIUS_GENZOO_16
 70
     0
  0
APPID
  2
ACAD_DSTYLE_DIMJAG
 70
     0
  0
APPID
  2
ACAD_DSTYLE_DIMTALN
 70
     0
  0
APPID
  2
ACAD_DSTYLE_DIMBREAK
 70
     0
  0
APPID
  2
ACAD_DSTYLE_DIMARC_LENGTH_
 70
     0
  0
APPID
  2
ACAD_DSTYLE_DIMJOGGED_JOGA
 70
     0
  0
APPID
  2
ACAD_DSTYLE_DIM_LINETYPE
 70
     0
  0
APPID
  2
ACAD_DSTYLE_DIM_EXT1_LINETYPE
 70
     0
  0
APPID
  2
ACAD_DSTYLE_DIM_EXT2_LINETYPE
 70
     0
  0
APPID
  2
ACDBATTR
 70
     0
  0
APPID
  2
ACAD_MLEADERVER
 70
     0
  0
APPID
  2
ACAD_DSTYLE_DIMRADIAL_EXTENSION
 70
     0
  0
APPID
  2
ACADANNOPO
 70
     0
  0
APPID
  2
ACAUTHENVIRON
 70
     0
  0
APPID
  2
ACAD_NAV_VCDISPLAY
 70
     0
  0
ENDTAB
  0
TABLE
  2
DIMSTYLE
 70
     2
  0
DIMSTYLE
  2
部品図用_1_1
 70
     0
  3

  4

  5

  6

  7

 40
1.0
 41
2.5
 42
1.0
 43
10.0
 44
1.0
 45
0.0
 46
0.0
 47
0.1
 48
0.1
140
2.5
141
0.0
142
0.0
143
25.3999999999999986
144
1.0
145
0.0
146
0.7
147
1.0
 71
     0
 72
     0
 73
     0
 74
     0
 75
     0
 76
     0
 77
     3
 78
     8
170
     0
171
     2
172
     1
173
     0
174
     0
175
     0
176
   256
177
   256
178
   256
  0
DIMSTYLE
  2
STANDARD
 70
     0
  3

  4

  5
OPEN30
  6

  7

 40
1.0
 41
0.18
 42
0.0625
 43
0.38
 44
0.18
 45
0.0
 46
0.0
 47
0.0
 48
0.0
140
0.18
141
0.09
142
0.0
143
25.3999999999999986
144
1.0
145
0.0
146
1.0
147
0.09
 71
     0
 72
     0
 73
     0
 74
     0
 75
     0
 76
     0
 77
     1
 78
     0
170
     0
171
     2
172
     1
173
     0
174
     0
175
     0
176
     0
177
     0
178
     0
  0
ENDTAB
  0
ENDSEC
  0
SECTION
  2
BLOCKS
  0
BLOCK
  8
0
  2
$MODEL_SPACE
 70
     2
 10
0.0
 20
0.0
 30
0.0
  3
$MODEL_SPACE
  1

  0
ENDBLK
  5
39
  8
0
  0
BLOCK
 67
     1
  8
0
  2
$PAPER_SPACE
 70
     0
 10
0.0
 20
0.0
 30
0.0
  3
$PAPER_SPACE
  1

  0
ENDBLK
  5
35
 67
     1
  8
0
  0
BLOCK
  8
0
  2
_OPEN30
 70
     0
 10
0.0
 20
0.0
 30
0.0
  3
_OPEN30
  1

  0
LINE
  5
93EB
  8
0
  6
BYBLOCK
 62
     0
 10
-1.0
 20
0.26794919
 30
0.0
 11
0.0
 21
0.0
 31
0.0
  0
LINE
  5
93EC
  8
0
  6
BYBLOCK
 62
     0
 10
0.0
 20
0.0
 30
0.0
 11
-1.0
 21
-0.26794919
 31
0.0
  0
LINE
  5
93ED
  8
0
  6
BYBLOCK
 62
     0
 10
0.0
 20
0.0
 30
0.0
 11
-1.0
 21
0.0
 31
0.0
  0
ENDBLK
  5
93EE
  8
0
  0
ENDSEC
  0
SECTION
  2
ENTITIES
  0
ARC
  5
D681
  8
01_表面形状
 62
     3
 10
895.3880507952585504
 20
-86.0004555713914556
 30
0.0
 40
27.6000000000000192
 50
165.3647803533615104
 51
14.6352196466385305
  0
LINE
  5
D682
  8
01_表面形状
 62
     3
 10
870.888050795258664
 20
-53.8294712622208067
 30
0.0
 11
868.6835592654739457
 21
-79.0269247486548352
 31
0.0
  0
LINE
  5
D683
  8
01_表面形状
 62
     3
 10
870.888050795258664
 20
-43.5004555713906598
 30
0.0
 11
870.888050795258664
 21
-53.8294712622204514
 31
0.0
  0
LINE
  5
D684
  8
04_中心線
 62
   110
 10
862.7880507952585276
 20
-86.0004555713913845
 30
0.0
 11
927.9880507952588005
 21
-86.0004555713914556
 31
0.0
  0
LINE
  5
D685
  8
04_中心線
 62
   110
 10
895.3880507952585504
 20
-30.0004555713914591
 30
0.0
 11
895.3880507952585504
 21
-118.6004555713913931
 31
0.0
  0
LINE
  5
D686
  8
01_表面形状
 62
     3
 10
919.888050795258323
 20
-53.8294712622200606
 30
0.0
 11
922.092542325043155
 21
-79.0269247486547215
 31
0.0
  0
LINE
  5
D687
  8
01_表面形状
 62
     3
 10
919.888050795258323
 20
-43.5004555713906598
 30
0.0
 11
919.888050795258323
 21
-53.8294712622203519
 31
0.0
  0
ARC
  5
D688
  8
01_表面形状
 62
     3
 10
792.0550831446280426
 20
22.903377036292909
 30
0.0
 40
24.9961468380859095
 50
245.5623947847311968
 51
201.3492204645189076
  0
ARC
  5
D689
  8
01_表面形状
 62
     3
 10
792.0550831446280426
 20
21.903377036292909
 30
0.0
 40
28.6000000000000014
 50
90.0
 51
118.2188980763312998
  0
LINE
  5
D68A
  8
01_表面形状
 62
     3
 10
775.0550831446280426
 20
-1.096622963707091
 30
0.0
 11
780.0806008612704545
 21
-1.096622963707091
 31
0.0
  0
LINE
  5
D68B
  8
01_表面形状
 62
     3
 10
775.0550831446280426
 20
-5.3066229637070981
 30
0.0
 11
780.0806008612704545
 21
-5.3066229637070981
 31
0.0
  0
ARC
  5
D68C
  8
01_表面形状
 62
     3
 10
792.0550831446280426
 20
23.903377036292909
 30
0.0
 40
28.6000000000000014
 50
246.1970304165135133
 51
270.0
  0
LINE
  5
D68D
  8
01_表面形状
 62
     3
 10
751.5550831446280426
 20
22.903377036292909
 30
0.0
 11
751.5550831446280426
 21
45.4033770362947209
 31
0.0
  0
LINE
  5
D68E
  8
01_表面形状
 62
     3
 10
768.7742011595834128
 20
13.8034929299110392
 30
0.0
 11
769.5302506606080897
 21
-0.6227909418286118
 31
0.0
  0
LINE
  5
D68F
  8
01_表面形状
 62
     3
 10
751.5550831446280426
 20
22.903377036292909
 30
0.0
 11
751.5550831446280426
 21
0.40337703629109
 31
0.0
  0
LINE
  5
D690
  8
01_表面形状
 62
     3
 10
751.5550831446277016
 20
-0.5966229637073184
 30
0.0
 11
762.4211085484120076
 21
-0.5966229637073184
 31
0.0
  0
ARC
  5
D691
  8
01_表面形状
 62
     3
 10
765.34364154200955
 20
-14.7195254905286692
 30
0.0
 40
14.4221210257285595
 50
94.734900225258059
 51
101.6915211782237947
  0
LINE
  5
D692
  8
01_表面形状
 62
     3
 10
769.5157773101657313
 20
-0.346622963707091
 30
0.0
 11
764.1531593559810744
 21
-0.3466229637072047
 31
0.0
  0
ARC
  5
D693
  8
01_表面形状
 62
     3
 10
770.0295654279855171
 20
-0.5966229637070911
 30
0.0
 40
0.5
 50
182.9999999999988916
 51
270.0
  0
LINE
  5
D694
  8
01_表面形状
 62
     3
 10
775.0550831446280426
 20
-1.096622963707091
 30
0.0
 11
770.0295654279855171
 21
-1.096622963707091
 31
0.0
  0
LINE
  5
D695
  8
01_表面形状
 62
     3
 10
751.5550831446281563
 20
46.4033770362930227
 30
0.0
 11
762.4211085484120076
 21
46.403377036292909
 31
0.0
  0
ARC
  5
D696
  8
01_表面形状
 62
     3
 10
765.34364154200955
 20
60.5262795631144783
 30
0.0
 40
14.4221210257285595
 50
258.3084788217760774
 51
265.2650997747418842
  0
LINE
  5
D697
  8
01_表面形状
 62
     3
 10
774.7490870739014781
 20
46.153377036292909
 30
0.0
 11
764.1531593559810744
 21
46.1533770362930227
 31
0.0
  0
ARC
  5
D698
  8
01_表面形状
 62
     3
 10
774.7490870739014781
 20
54.1533770362929019
 30
0.0
 40
8.0
 50
270.0
 51
298.2188980763312998
  0
LINE
  5
D699
  8
01_表面形状
 62
     3
 10
833.5550831446280426
 20
22.903377036292909
 30
0.0
 11
833.5550831446280426
 21
45.4033770362947209
 31
0.0
  0
LINE
  5
D69A
  8
04_中心線
 62
   110
 10
792.0550831446280426
 20
55.5033770362929317
 30
0.0
 11
792.0550831446280426
 21
-9.6966229637071137
 31
0.0
  0
LINE
  5
D69B
  8
04_中心線
 62
   110
 10
746.5550831446280426
 20
22.903377036292909
 30
0.0
 11
838.5550831446280426
 21
22.903377036292909
 31
0.0
  0
LINE
  5
D69C
  8
01_表面形状
 62
     3
 10
833.5550831446280426
 20
-0.5966229637072047
 30
0.0
 11
823.6890577408438503
 21
-0.5966229637072047
 31
0.0
  0
ARC
  5
D69D
  8
01_表面形状
 62
     3
 10
792.0550831446280426
 20
85.4033770362928948
 30
0.0
 40
90.0999999999999943
 50
270.0
 51
287.5838143196446026
  0
ARC
  5
D69E
  8
01_表面形状
 62
     3
 10
781.3831642071939996
 20
-0.5817531078002958
 30
0.0
 40
0.8
 50
65.5623947847311541
 51
176.9999999999747047
  0
ARC
  5
D69F
  8
01_表面形状
 62
     3
 10
780.0806008612704545
 20
-0.5966229637070911
 30
0.0
 40
0.5
 50
270.0
 51
356.999999999994202
  0
LINE
  5
D6A0
  8
01_表面形状
 62
     3
 10
780.5842605793903886
 20
-0.5398843428056354
 30
0.0
 11
780.5799156286476546
 21
-0.6227909418286118
 31
0.0
  0
ARC
  5
D6A1
  8
01_表面形状
 62
     3
 10
820.1806498055857446
 20
-3.3466229637072029
 30
0.0
 40
3.0
 50
90.0
 51
107.5838143196451
  0
ARC
  5
D6A2
  8
01_表面形状
 62
     3
 10
821.4617541028137566
 20
-9.9028352235092125
 30
0.0
 40
9.5690369484328635
 50
76.5402909889368033
 51
87.0332876075865585
  0
LINE
  5
D6A3
  8
01_表面形状
 62
     3
 10
820.1806498055857446
 20
-0.3466229637072047
 30
0.0
 11
821.9570069332745561
 21
-0.3466229637072047
 31
0.0
  0
LINE
  5
D6A4
  8
01_表面形状
 62
     3
 10
833.5550831446280426
 20
22.903377036292909
 30
0.0
 11
833.5550831446280426
 21
0.40337703629109
 31
0.0
  0
LINE
  5
D6A5
  8
01_表面形状
 62
     3
 10
833.5550831446281563
 20
46.4033770362931293
 30
0.0
 11
823.6890577408438503
 21
46.4033770362931293
 31
0.0
  0
ARC
  5
D6A6
  8
01_表面形状
 62
     3
 10
792.0550831446280426
 20
-39.596622963707091
 30
0.0
 40
90.0999999999999943
 50
72.4161856803548432
 51
90.0
  0
ARC
  5
D6A7
  8
01_表面形状
 62
     3
 10
820.1806498055857446
 20
49.1533770362930227
 30
0.0
 40
3.0
 50
252.4161856803548005
 51
270.0
  0
ARC
  5
D6A8
  8
01_表面形状
 62
     3
 10
821.4617541028137566
 20
55.7095892960952597
 30
0.0
 40
9.5690369484328635
 50
272.9667123924135126
 51
283.4597090110631825
  0
LINE
  5
D6A9
  8
01_表面形状
 62
     3
 10
820.1806498055857446
 20
46.1533770362930227
 30
0.0
 11
821.9570069332745561
 21
46.1533770362930227
 31
0.0
  0
LINE
  5
D6AC
  8
01_表面形状
 62
     3
 10
767.5550831446280426
 20
-43.5004555713414476
 30
0.0
 11
816.5550831446280426
 21
-43.5004555713414476
 31
0.0
  0
LINE
  5
D6AD
  8
01_表面形状
 62
     3
 10
767.5550831446280426
 20
-46.0004555713414476
 30
0.0
 11
816.5550831446281563
 21
-46.0004555713414476
 31
0.0
  0
ARC
  5
D6AE
  8
01_表面形状
 62
     3
 10
792.0550831446280426
 20
-85.1004555713413708
 30
0.0
 40
28.5
 50
241.7416703546984991
 51
270.0
  0
LINE
  5
D6AF
  8
01_表面形状
 62
     3
 10
751.5550831446280426
 20
-75.6896602577414512
 30
0.0
 11
751.5550831446280426
 21
-71.6702816430414202
 31
0.0
  0
LINE
  5
D6B0
  8
01_表面形状
 62
     3
 10
761.5550831446280426
 20
-70.9122344003414753
 30
0.0
 11
761.5550831446280426
 21
-75.4737039356414101
 31
0.0
  0
LINE
  5
D6B1
  8
01_表面形状
 62
     3
 10
751.5550831446280426
 20
-96.3112508850414031
 30
0.0
 11
751.5550831446280426
 21
-75.6896602577414512
 31
0.0
  0
LINE
  5
D6B2
  8
01_表面形状
 62
     3
 10
764.1531593560280271
 20
-109.2504555713415044
 30
0.0
 11
774.7742411512281251
 21
-109.2504555713415044
 31
0.0
  0
LINE
  5
D6B3
  8
01_表面形状
 62
     3
 10
751.5550831446280426
 20
-100.3306294997414057
 30
0.0
 11
751.5550831446280426
 21
-96.3112508850414031
 31
0.0
  0
LINE
  5
D6B4
  8
01_表面形状
 62
     3
 10
761.5550831446280426
 20
-96.5272072071414584
 30
0.0
 11
761.5550831446280426
 21
-101.0886767424412938
 31
0.0
  0
LINE
  5
D6B5
  8
01_表面形状
 62
     3
 10
751.5550831446280426
 20
-110.7504555713415044
 30
0.0
 11
751.5550831446280426
 21
-110.641424813341402
 31
0.0
  0
LINE
  5
D6B6
  8
01_表面形状
 62
     3
 10
761.5550831446280426
 20
-111.6154283781414023
 30
0.0
 11
761.5550831446280426
 21
-111.7504555713415044
 31
0.0
  0
LINE
  5
D6B7
  8
01_表面形状
 62
     3
 10
761.5550831446280426
 20
-113.1359182233039036
 30
0.0
 11
762.4211085484280375
 21
-110.2504555713415044
 31
0.0
  0
LINE
  5
D6B8
  8
01_表面形状
 62
     3
 10
751.5550831446280426
 20
-110.641424813341402
 30
0.0
 11
751.5550831446280426
 21
-100.3306294997414057
 31
0.0
  0
ARC
  5
D6B9
  8
01_表面形状
 62
     3
 10
764.1531593560280271
 20
-111.2504555713415044
 30
0.0
 40
2.0
 50
90.0
 51
149.9999999999994031
  0
ARC
  5
D6BA
  8
01_表面形状
 62
     3
 10
774.7742411512281251
 20
-117.2504555713414049
 30
0.0
 40
8.0
 50
61.741670354698492
 51
90.0
  0
LINE
  5
D6C4
  8
01_表面形状
 62
     3
 10
767.5550831446280426
 20
-43.5004555713414476
 30
0.0
 11
767.5550831446280426
 21
-53.8294712622413982
 31
0.0
  0
LINE
  5
D6C5
  8
04_中心線
 62
   110
 10
775.0550831446280426
 20
-68.7944378624106037
 30
0.0
 11
775.0550831446280426
 21
-50.1887614995459614
 31
0.0
  0
POLYLINE
  5
D6C6
  8
01_表面形状
 62
     3
 66
     1
 10
0.0
 20
0.0
 30
0.0
 70
   128
  0
VERTEX
  5
DA32
  8
01_表面形状
 62
     3
 10
767.0111760022278986
 20
-60.0308926873414919
 30
0.0
  0
VERTEX
  5
DA33
  8
01_表面形状
 62
     3
 10
767.0107701592279454
 20
-60.0484637968414603
 30
0.0
  0
VERTEX
  5
DA34
  8
01_表面形状
 62
     3
 10
766.9179150561280949
 20
-60.547051436741377
 30
0.0
  0
VERTEX
  5
DA35
  8
01_表面形状
 62
     3
 10
766.7336705997280433
 20
-61.0413486969413981
 30
0.0
  0
VERTEX
  5
DA36
  8
01_表面形状
 62
     3
 10
766.4590463028280283
 20
-61.5049894017414118
 30
0.0
  0
VERTEX
  5
DA37
  8
01_表面形状
 62
     3
 10
766.1018248936279633
 20
-61.9159432406414396
 30
0.0
  0
VERTEX
  5
DA38
  8
01_表面形状
 62
     3
 10
765.6401579525280567
 20
-62.2789420915414311
 30
0.0
  0
VERTEX
  5
DA39
  8
01_表面形状
 62
     3
 10
765.1543917404278545
 20
-62.5299994917414566
 30
0.0
  0
VERTEX
  5
DA3A
  8
01_表面形状
 62
     3
 10
764.6652689128280826
 20
-62.6814710862414231
 30
0.0
  0
VERTEX
  5
DA3B
  8
01_表面形状
 62
     3
 10
764.1879051333280586
 20
-62.7460653643414332
 30
0.0
  0
VERTEX
  5
DA3C
  8
01_表面形状
 62
     3
 10
764.0958258953279483
 20
-62.7496336210413972
 30
0.0
  0
SEQEND
  5
DA3D
  8
01_表面形状
 62
     3
  0
LINE
  5
D6C7
  8
04_中心線
 62
   110
 10
784.3245056324608413
 20
-59.5004555714416199
 30
0.0
 11
765.6939123337537012
 21
-59.5004555714416199
 31
0.0
  0
LINE
  5
D6C8
  8
01_表面形状
 62
     3
 10
751.5550831446280426
 20
-71.6702816430414202
 30
0.0
 11
751.5550831446280426
 21
-61.3594863294414026
 31
0.0
  0
LINE
  5
D6C9
  8
01_表面形状
 62
     3
 10
751.5550831446280426
 20
-61.3594863294414026
 30
0.0
 11
751.5550831446280426
 21
-61.2504555713414618
 31
0.0
  0
ARC
  5
D6CA
  8
01_表面形状
 62
     3
 10
764.1531593560280271
 20
-60.7504555713414618
 30
0.0
 40
2.0
 50
210.0000000000005116
 51
268.3541313341950172
  0
LINE
  5
D6CB
  8
01_表面形状
 62
     3
 10
761.5550831446280426
 20
-60.2504555713414476
 30
0.0
 11
761.5550831446280426
 21
-60.3854827645413579
 31
0.0
  0
LINE
  5
D6CC
  8
01_表面形状
 62
     3
 10
762.4211085484280375
 20
-61.7504555713414476
 30
0.0
 11
761.5550831446280426
 21
-58.864992919479171
 31
0.0
  0
POLYLINE
  5
D6CD
  8
01_表面形状
 62
     3
 66
     1
 10
0.0
 20
0.0
 30
0.0
 70
   128
  0
VERTEX
  5
DA3E
  8
01_表面形状
 62
     3
 10
771.9335197640280057
 20
-54.000455571441492
 30
0.0
  0
VERTEX
  5
DA3F
  8
01_表面形状
 62
     3
 10
772.1556621926279149
 20
-53.8813441277415706
 30
0.0
  0
VERTEX
  5
DA40
  8
01_表面形状
 62
     3
 10
773.3851773190278891
 20
-53.4026094544416026
 30
0.0
  0
VERTEX
  5
DA41
  8
01_表面形状
 62
     3
 10
774.7745571569279264
 20
-53.180283983741532
 30
0.0
  0
VERTEX
  5
DA42
  8
01_表面形状
 62
     3
 10
775.856421540827796
 20
-53.2212829020415583
 30
0.0
  0
VERTEX
  5
DA43
  8
01_表面形状
 62
     3
 10
776.9828051808277678
 20
-53.4674951814415422
 30
0.0
  0
VERTEX
  5
DA44
  8
01_表面形状
 62
     3
 10
778.1972633533276849
 20
-54.000455571441492
 30
0.0
  0
SEQEND
  5
DA45
  8
01_表面形状
 62
     3
  0
POLYLINE
  5
D6CE
  8
01_表面形状
 62
     3
 66
     1
 10
0.0
 20
0.0
 30
0.0
 70
   128
  0
VERTEX
  5
DA46
  8
01_表面形状
 62
     3
 10
771.9746372129279735
 20
-54.0202618791415432
 30
0.0
  0
VERTEX
  5
DA47
  8
01_表面形状
 62
     3
 10
771.9736939128279118
 20
-54.0160017618415722
 30
0.0
  0
VERTEX
  5
DA48
  8
01_表面形状
 62
     3
 10
771.9714077071280371
 20
-54.01174221954156
 30
0.0
  0
VERTEX
  5
DA49
  8
01_表面形状
 62
     3
 10
771.9658077256276556
 20
-54.006768655541542
 30
0.0
  0
VERTEX
  5
DA4A
  8
01_表面形状
 62
     3
 10
771.9379089967277423
 20
-54.0005224294415882
 30
0.0
  0
VERTEX
  5
DA4B
  8
01_表面形状
 62
     3
 10
771.9335197640280057
 20
-54.000455571441492
 30
0.0
  0
SEQEND
  5
DA4C
  8
01_表面形状
 62
     3
  0
POLYLINE
  5
D6CF
  8
01_表面形状
 62
     3
 66
     1
 10
0.0
 20
0.0
 30
0.0
 70
   128
  0
VERTEX
  5
DA4D
  8
01_表面形状
 62
     3
 10
778.1972633533276849
 20
-54.000455571441492
 30
0.0
  0
VERTEX
  5
DA4E
  8
01_表面形状
 62
     3
 10
778.1808263513279371
 20
-54.0014657557415774
 30
0.0
  0
VERTEX
  5
DA4F
  8
01_表面形状
 62
     3
 10
778.1634802351277358
 20
-54.0063024178416171
 30
0.0
  0
VERTEX
  5
DA50
  8
01_表面形状
 62
     3
 10
778.15707154772781
 20
-54.0104701082416128
 30
0.0
  0
VERTEX
  5
DA51
  8
01_表面形状
 62
     3
 10
778.1526938470276491
 20
-54.015573552241527
 30
0.0
  0
VERTEX
  5
DA52
  8
01_表面形状
 62
     3
 10
778.1511838777277035
 20
-54.0185184474415507
 30
0.0
  0
SEQEND
  5
DA53
  8
01_表面形状
 62
     3
  0
POLYLINE
  5
D6D0
  8
01_表面形状
 62
     3
 66
     1
 10
0.0
 20
0.0
 30
0.0
 70
   128
  0
VERTEX
  5
DA54
  8
01_表面形状
 62
     3
 10
778.1511838777277035
 20
-54.0185184474415507
 30
0.0
  0
VERTEX
  5
DA55
  8
01_表面形状
 62
     3
 10
778.7394431393278182
 20
-54.3958566683415583
 30
0.0
  0
VERTEX
  5
DA56
  8
01_表面形状
 62
     3
 10
779.4417589740277208
 20
-54.9879427692415774
 30
0.0
  0
VERTEX
  5
DA57
  8
01_表面形状
 62
     3
 10
780.0699363673278413
 20
-55.7014411128416
 30
0.0
  0
VERTEX
  5
DA58
  8
01_表面形状
 62
     3
 10
780.5656331030278352
 20
-56.4709602427415902
 30
0.0
  0
VERTEX
  5
DA59
  8
01_表面形状
 62
     3
 10
780.9529865196276432
 20
-57.3238198761415276
 30
0.0
  0
VERTEX
  5
DA5A
  8
01_表面形状
 62
     3
 10
781.2055907204279492
 20
-58.2072528870415624
 30
0.0
  0
VERTEX
  5
DA5B
  8
01_表面形状
 62
     3
 10
781.3295722165280495
 20
-59.1299168091415623
 30
0.0
  0
VERTEX
  5
DA5C
  8
01_表面形状
 62
     3
 10
781.3160106659279336
 20
-60.0633986157415265
 30
0.0
  0
VERTEX
  5
DA5D
  8
01_表面形状
 62
     3
 10
781.1658738778277211
 20
-60.988384796741542
 30
0.0
  0
VERTEX
  5
DA5E
  8
01_表面形状
 62
     3
 10
780.8591419652277636
 20
-61.9310028304415425
 30
0.0
  0
VERTEX
  5
DA5F
  8
01_表面形状
 62
     3
 10
780.4144717251276688
 20
-62.8073880516415883
 30
0.0
  0
VERTEX
  5
DA60
  8
01_表面形状
 62
     3
 10
779.7580422797277606
 20
-63.6939496038415527
 30
0.0
  0
VERTEX
  5
DA61
  8
01_表面形状
 62
     3
 10
778.9829796060280387
 20
-64.4331239952416297
 30
0.0
  0
VERTEX
  5
DA62
  8
01_表面形状
 62
     3
 10
778.1418877524278059
 20
-64.9995816866415623
 30
0.0
  0
VERTEX
  5
DA63
  8
01_表面形状
 62
     3
 10
777.2634744532279001
 20
-65.4071490986416109
 30
0.0
  0
VERTEX
  5
DA64
  8
01_表面形状
 62
     3
 10
776.21174671002791
 20
-65.6956612612416109
 30
0.0
  0
VERTEX
  5
DA65
  8
01_表面形状
 62
     3
 10
775.1896087058279363
 20
-65.7963924439415706
 30
0.0
  0
VERTEX
  5
DA66
  8
01_表面形状
 62
     3
 10
774.0994289511278339
 20
-65.7183706128415395
 30
0.0
  0
VERTEX
  5
DA67
  8
01_表面形状
 62
     3
 10
773.0914247973275906
 20
-65.4706618264414999
 30
0.0
  0
VERTEX
  5
DA68
  8
01_表面形状
 62
     3
 10
772.1809314175278587
 20
-65.0854859932415621
 30
0.0
  0
VERTEX
  5
DA69
  8
01_表面形状
 62
     3
 10
771.287816171527993
 20
-64.5268156587415831
 30
0.0
  0
VERTEX
  5
DA6A
  8
01_表面形状
 62
     3
 10
770.5124960161278977
 20
-63.846268495941537
 30
0.0
  0
VERTEX
  5
DA6B
  8
01_表面形状
 62
     3
 10
769.7050961950280907
 20
-62.8365611411415586
 30
0.0
  0
VERTEX
  5
DA6C
  8
01_表面形状
 62
     3
 10
769.0914827387276773
 20
-61.6129323585415278
 30
0.0
  0
VERTEX
  5
DA6D
  8
01_表面形状
 62
     3
 10
768.9000414386277953
 20
-61.0183549739415128
 30
0.0
  0
VERTEX
  5
DA6E
  8
01_表面形状
 62
     3
 10
768.7603875942277227
 20
-60.3446788190415973
 30
0.0
  0
VERTEX
  5
DA6F
  8
01_表面形状
 62
     3
 10
768.6944943399279282
 20
-59.5455670909416028
 30
0.0
  0
VERTEX
  5
DA70
  8
01_表面形状
 62
     3
 10
768.7202731401280289
 20
-58.8983677645415611
 30
0.0
  0
VERTEX
  5
DA71
  8
01_表面形状
 62
     3
 10
768.8162128192279852
 20
-58.2611738950415514
 30
0.0
  0
VERTEX
  5
DA72
  8
01_表面形状
 62
     3
 10
769.0221905529278956
 20
-57.5134094695415286
 30
0.0
  0
VERTEX
  5
DA73
  8
01_表面形状
 62
     3
 10
769.4124375524278321
 20
-56.6210182623416003
 30
0.0
  0
VERTEX
  5
DA74
  8
01_表面形状
 62
     3
 10
770.0277330707278907
 20
-55.6714330342415309
 30
0.0
  0
VERTEX
  5
DA75
  8
01_表面形状
 62
     3
 10
770.7494767556277111
 20
-54.8963636296416198
 30
0.0
  0
VERTEX
  5
DA76
  8
01_表面形状
 62
     3
 10
771.568252604828217
 20
-54.2662932371415181
 30
0.0
  0
VERTEX
  5
DA77
  8
01_表面形状
 62
     3
 10
771.9746372129279735
 20
-54.0202618791415432
 30
0.0
  0
SEQEND
  5
DA78
  8
01_表面形状
 62
     3
  0
LINE
  5
D6D1
  8
01_表面形状
 62
     3
 10
767.5550831446280426
 20
-53.8294712622413982
 30
0.0
 11
767.0126100315281974
 21
-60.0299673179414128
 31
0.0
  0
LINE
  5
D6D2
  8
01_表面形状
 62
     3
 10
824.5550831446280426
 20
-70.9122344003414753
 30
0.0
 11
824.5550831446280426
 21
-75.4737039356414101
 31
0.0
  0
LINE
  5
D6D3
  8
01_表面形状
 62
     3
 10
833.5550831446280426
 20
-71.6702816430414202
 30
0.0
 11
833.5550831446280426
 21
-75.6896602577414512
 31
0.0
  0
LINE
  5
D6D4
  8
04_中心線
 62
   110
 10
792.0550831446281563
 20
-30.0004555713915089
 30
0.0
 11
792.0550831446280426
 21
-118.6004555713413993
 31
0.0
  0
LINE
  5
D6D5
  8
04_中心線
 62
   110
 10
746.5550831446280426
 20
-86.000455571391484
 30
0.0
 11
838.5550831446280426
 21
-86.0004555713914272
 31
0.0
  0
ARC
  5
D6D6
  8
01_表面形状
 62
     3
 10
792.0550831446280426
 20
-23.6004555713413708
 30
0.0
 40
90.0
 50
270.0
 51
287.5933403892934734
  0
LINE
  5
D6D7
  8
01_表面形状
 62
     3
 10
820.1651791957283422
 20
-109.2504555713415044
 30
0.0
 11
821.9570069332280582
 21
-109.2504555713415044
 31
0.0
  0
ARC
  5
D6D8
  8
01_表面形状
 62
     3
 10
820.1651791957283422
 20
-112.2504555713415044
 30
0.0
 40
3.0
 50
90.0
 51
107.5933403892935019
  0
LINE
  5
D6D9
  8
01_表面形状
 62
     3
 10
824.5550831446280426
 20
-96.5272072071414584
 30
0.0
 11
824.5550831446280426
 21
-101.0886767424412938
 31
0.0
  0
LINE
  5
D6DA
  8
01_表面形状
 62
     3
 10
824.5550831446280426
 20
-111.6154283781414023
 30
0.0
 11
824.5550831446280426
 21
-111.7504555713415044
 31
0.0
  0
LINE
  5
D6DB
  8
01_表面形状
 62
     3
 10
823.6890577408280478
 20
-110.2504555713415044
 30
0.0
 11
824.5550831446280426
 21
-113.1359182233039036
 31
0.0
  0
ARC
  5
D6DC
  8
01_表面形状
 62
     3
 10
821.9570069332280582
 20
-111.2504555713415044
 30
0.0
 40
2.0
 50
30.0000000000005507
 51
90.0
  0
LINE
  5
D6FE
  8
01_表面形状
 62
     3
 10
833.5550831446280426
 20
-75.6896602577414512
 30
0.0
 11
833.5550831446280426
 21
-96.3112508850414031
 31
0.0
  0
LINE
  5
D6FF
  8
01_表面形状
 62
     3
 10
833.5550831446280426
 20
-96.3112508850414031
 30
0.0
 11
833.5550831446280426
 21
-100.3306294997414057
 31
0.0
  0
LINE
  5
D700
  8
01_表面形状
 62
     3
 10
833.5550831446280426
 20
-110.641424813341402
 30
0.0
 11
833.5550831446280426
 21
-110.7504555713415044
 31
0.0
  0
LINE
  5
D701
  8
01_表面形状
 62
     3
 10
833.5550831446280426
 20
-100.3306294997414057
 30
0.0
 11
833.5550831446280426
 21
-110.641424813341402
 31
0.0
  0
LINE
  5
D702
  8
01_表面形状
 62
     3
 10
816.5550831446280426
 20
-53.8294712622413982
 30
0.0
 11
816.5550831446280426
 21
-43.5004555713414476
 31
0.0
  0
POLYLINE
  5
D703
  8
01_表面形状
 62
     3
 66
     1
 10
0.0
 20
0.0
 30
0.0
 70
   128
  0
VERTEX
  5
DA79
  8
01_表面形状
 62
     3
 10
819.1659166729280059
 20
-62.5728253099414076
 30
0.0
  0
VERTEX
  5
DA7A
  8
01_表面形状
 62
     3
 10
818.792597147427955
 20
-62.4338800215413983
 30
0.0
  0
VERTEX
  5
DA7B
  8
01_表面形状
 62
     3
 10
818.329391365528295
 20
-62.1600507689414314
 30
0.0
  0
VERTEX
  5
DA7C
  8
01_表面形状
 62
     3
 10
817.9183314051281286
 20
-61.8034935766414506
 30
0.0
  0
VERTEX
  5
DA7D
  8
01_表面形状
 62
     3
 10
817.5527617926277344
 20
-61.3390079427413966
 30
0.0
  0
VERTEX
  5
DA7E
  8
01_表面形状
 62
     3
 10
817.3005607721280512
 20
-60.8501795752413983
 30
0.0
  0
VERTEX
  5
DA7F
  8
01_表面形状
 62
     3
 10
817.1491318100279386
 20
-60.3582343145414697
 30
0.0
  0
VERTEX
  5
DA80
  8
01_表面形状
 62
     3
 10
817.1018017904279986
 20
-60.001589586941428
 30
0.0
  0
SEQEND
  5
DA81
  8
01_表面形状
 62
     3
  0
LINE
  5
D704
  8
01_表面形状
 62
     3
 10
821.9570069332280582
 20
-62.7504555713414476
 30
0.0
 11
820.1651791957283422
 21
-62.7504555713414476
 31
0.0
  0
ARC
  5
D705
  8
01_表面形状
 62
     3
 10
820.1515532283465291
 20
-59.9276081177299318
 30
0.0
 40
2.8228803398919511
 50
249.5640618778622866
 51
270.2765662587485167
  0
LINE
  5
D706
  8
01_表面形状
 62
     3
 10
824.5550831446280426
 20
-60.2504555713414476
 30
0.0
 11
824.5550831446280426
 21
-60.3854827645413579
 31
0.0
  0
ARC
  5
D707
  8
01_表面形状
 62
     3
 10
821.9570069332280582
 20
-60.7504555713414618
 30
0.0
 40
2.0
 50
270.0
 51
329.9999999999994884
  0
LINE
  5
D708
  8
01_表面形状
 62
     3
 10
824.5550831446280426
 20
-58.8649929194790928
 30
0.0
 11
823.6890577408280478
 21
-61.7504555713414476
 31
0.0
  0
LINE
  5
D709
  8
01_表面形状
 62
     3
 10
817.1018017904279986
 20
-60.001589586941428
 30
0.0
 11
816.5550831446280426
 21
-53.8294712622413982
 31
0.0
  0
LINE
  5
D70A
  8
01_表面形状
 62
     3
 10
833.5550831446280426
 20
-61.3594863294414026
 30
0.0
 11
833.5550831446280426
 21
-71.6702816430414202
 31
0.0
  0
LINE
  5
D70B
  8
01_表面形状
 62
     3
 10
833.5550831446280426
 20
-61.2504555713414618
 30
0.0
 11
833.5550831446280426
 21
-61.3594863294414026
 31
0.0
  0
LINE
  5
D70C
  8
01_表面形状
 62
     3
 10
773.6050831446283382
 20
-37.4275680378900404
 30
0.0
 11
773.6050831446283382
 21
-43.5004555713414476
 31
0.0
  0
LINE
  5
D70D
  8
01_表面形状
 62
     3
 10
810.5050831446282018
 20
-43.5004555713414476
 30
0.0
 11
810.5050831446282018
 21
-37.4275680378901612
 31
0.0
  0
POLYLINE
  5
D70E
  8
01_表面形状
 62
     3
 66
     1
 10
0.0
 20
0.0
 30
0.0
  0
VERTEX
  5
DA82
  8
01_表面形状
 62
     3
 10
808.0332518444510015
 20
-36.0004555713414618
 30
0.0
  0
VERTEX
  5
DA83
  8
01_表面形状
 62
     3
 10
776.0769144448048564
 20
-36.0004555713414618
 30
0.0
  0
SEQEND
  5
DA84
  8
01_表面形状
 62
     3
  0
LINE
  5
D70F
  8
01_表面形状
 62
     3
 10
808.0332518444510015
 20
-36.0004555713414618
 30
0.0
 11
810.5050831446282018
 21
-37.4275680378901612
 31
0.0
  0
LINE
  5
D710
  8
01_表面形状
 62
     3
 10
801.2800831446280654
 20
-37.4275680378900404
 30
0.0
 11
801.2800831446280654
 21
-43.5004555713414476
 31
0.0
  0
ARC
  5
D711
  8
01_表面形状
 62
     3
 10
805.8925831446281336
 20
-44.167928979571542
 30
0.0
 40
8.1674734082300162
 50
55.615752531960382
 51
124.3842474680396037
  0
LINE
  5
D712
  8
01_表面形状
 62
     3
 10
782.8300831446281336
 20
-37.4275680378900404
 30
0.0
 11
782.8300831446281336
 21
-43.5004555713414476
 31
0.0
  0
ARC
  5
D713
  8
01_表面形状
 62
     3
 10
792.0550831446281563
 20
-66.529680504439014
 30
0.0
 40
30.5292249330975096
 50
72.4120462260023459
 51
107.5879537739976968
  0
LINE
  5
D714
  8
01_表面形状
 62
     3
 10
776.0769144448053112
 20
-36.0004555713413623
 30
0.0
 11
773.6050831446283382
 21
-37.4275680378900404
 31
0.0
  0
ARC
  5
D715
  8
01_表面形状
 62
     3
 10
778.2175831446281791
 20
-44.1679289795714283
 30
0.0
 40
8.1674734082300162
 50
55.615752531960382
 51
124.3842474680396037
  0
POLYLINE
  5
D716
  8
01_表面形状
 62
     3
 66
     1
 10
0.0
 20
0.0
 30
0.0
  0
VERTEX
  5
DA85
  8
01_表面形状
 62
     3
 10
911.3662194950816229
 20
-36.0004555713906598
 30
0.0
  0
VERTEX
  5
DA86
  8
01_表面形状
 62
     3
 10
879.4098820954355915
 20
-36.0004555713906598
 30
0.0
  0
SEQEND
  5
DA87
  8
01_表面形状
 62
     3
  0
CIRCLE
  5
D717
  8
01_表面形状
 62
     3
 10
792.0550831446280426
 20
22.903377036292909
 30
0.0
 40
24.5000000000000284
  0
POLYLINE
  5
D718
  8
01_表面形状
 62
     3
 66
     1
 10
0.0
 20
0.0
 30
0.0
 70
     1
  0
VERTEX
  5
DA88
  8
01_表面形状
 62
     3
 10
810.5050831446280881
 20
22.903377036292909
 30
0.0
  0
VERTEX
  5
DA89
  8
01_表面形状
 62
     3
 10
801.2800831446280654
 20
38.8815457361158394
 30
0.0
  0
VERTEX
  5
DA8A
  8
01_表面形状
 62
     3
 10
782.8300831446281336
 20
38.8815457361157186
 30
0.0
  0
VERTEX
  5
DA8B
  8
01_表面形状
 62
     3
 10
773.6050831446279972
 20
22.903377036292909
 30
0.0
  0
VERTEX
  5
DA8C
  8
01_表面形状
 62
     3
 10
782.8300831446281336
 20
6.925208336469951
 30
0.0
  0
VERTEX
  5
DA8D
  8
01_表面形状
 62
     3
 10
801.2800831446280654
 20
6.925208336469951
 30
0.0
  0
SEQEND
  5
DA8E
  8
01_表面形状
 62
     3
  0
CIRCLE
  5
D719
  8
01_表面形状
 62
     3
 10
792.0550831446280426
 20
22.903377036292909
 30
0.0
 40
15.9781686998229304
  0
ARC
  5
D71A
  8
01_表面形状
 62
     3
 10
779.3854588176006928
 20
-4.6888678014782101
 30
0.0
 40
2.555270833107417
 50
55.6005266118987009
 51
124.3994733881012991
  0
ARC
  5
D71B
  8
01_表面形状
 62
     3
 10
779.3854588176019433
 20
-2.7513521305994848
 30
0.0
 40
2.555270833107417
 50
235.6005266118986015
 51
304.3994733880959984
  0
LINE
  5
D71C
  8
01_表面形状
 62
     3
 10
780.0550831446278153
 20
-5.3066229637069267
 30
0.0
 11
770.0550831446278153
 21
-5.3066229637070421
 31
0.0
  0
LINE
  5
D71D
  8
01_表面形状
 62
     3
 10
780.0550831446278153
 20
-5.3066229637069853
 30
0.0
 11
770.0550831446278153
 21
-5.3066229637070981
 31
0.0
  0
ARC
  5
D71E
  8
01_表面形状
 62
     3
 10
770.7247074716525503
 20
-4.6888678014783221
 30
0.0
 40
2.555270833107417
 50
55.6005266118987009
 51
124.3994733881012991
  0
ARC
  5
D71F
  8
01_表面形状
 62
     3
 10
775.0550831446265647
 20
-11.6811637769022507
 30
0.0
 40
9.54756680853143
 50
72.4009153227637938
 51
107.5990846772362062
  0
LINE
  5
D722
  8
01_表面形状
 62
     3
 10
770.0550831446278153
 20
-5.3066229637070421
 30
0.0
 11
769.2810831446278144
 21
-4.8597538553545121
 31
0.0
  0
ARC
  5
D723
  8
01_表面形状
 62
     3
 10
770.7247074716538009
 20
-2.751352130599598
 30
0.0
 40
2.555270833107417
 50
235.6005266118986015
 51
304.3994733880959984
  0
ARC
  5
D724
  8
01_表面形状
 62
     3
 10
775.0550831446275879
 20
4.2409438448243861
 30
0.0
 40
9.54756680853143
 50
252.400915322763808
 51
287.599084677236192
  0
LINE
  5
D725
  8
01_表面形状
 62
     3
 10
780.0550831446278153
 20
-5.3066229637069267
 30
0.0
 11
780.8290831446280436
 21
-4.8597538553539419
 31
0.0
  0
LINE
  5
D726
  8
01_表面形状
 62
     3
 10
780.828585836524212
 20
-4.8600942764738013
 30
0.0
 11
780.828585836524212
 21
-2.580125655604915
 31
0.0
  0
LINE
  5
D727
  8
01_表面形状
 62
     3
 10
777.9418344905762979
 20
-4.859753855354171
 30
0.0
 11
777.9418344905759568
 21
-2.5804660767227281
 31
0.0
  0
LINE
  5
D728
  8
01_表面形状
 62
     3
 10
772.1683317986797874
 20
-4.8597538553542261
 30
0.0
 11
772.1683317986797874
 21
-2.580466076724377
 31
0.0
  0
LINE
  5
D729
  8
01_表面形状
 62
     3
 10
769.2815804527316459
 20
-4.860094276473915
 30
0.0
 11
769.2815804527316459
 21
-2.5801256556033811
 31
0.0
  0
LINE
  5
D72A
  8
01_表面形状
 62
     3
 10
780.8285858365292142
 20
-2.5801256556083261
 30
0.0
 11
779.3450831446277789
 21
-1.096622963707091
 31
0.0
  0
LINE
  5
D72B
  8
01_表面形状
 62
     3
 10
769.2815804527316459
 20
-2.5801256556034371
 30
0.0
 11
770.7650831446278517
 21
-1.096622963707091
 31
0.0
  0
LINE
  5
D72C
  8
04_中心線
 62
   110
 10
775.0550831446280426
 20
6.4577465229952491
 30
0.0
 11
775.0550831446281563
 21
-6.267011738891993
 31
0.0
  0
LINE
  5
D72D
  8
01_表面形状
 62
     3
 10
879.4098820954355915
 20
-43.5004555713906598
 30
0.0
 11
879.4098820954355915
 21
-36.0004555713906598
 31
0.0
  0
LINE
  5
D72E
  8
01_表面形状
 62
     3
 10
895.3880507952585504
 20
-43.5004555713906598
 30
0.0
 11
895.3880507952585504
 21
-37.4275680379391815
 31
0.0
  0
LINE
  5
D72F
  8
01_表面形状
 62
     3
 10
911.3662194950816229
 20
-43.5004555713906598
 30
0.0
 11
911.3662194950816229
 21
-36.0004555713906598
 31
0.0
  0
ARC
  5
D730
  8
01_表面形状
 62
     3
 10
887.3989664453473551
 20
-59.0220448142247207
 30
0.0
 40
23.024919022475121
 50
69.697561496239743
 51
110.3024385037602002
  0
ARC
  5
D731
  8
01_表面形状
 62
     3
 10
903.3771351451698592
 20
-59.0751539528315917
 30
0.0
 40
23.0747360698372503
 50
69.743318132347639
 51
110.2566818676523042
  0
POLYLINE
  5
D732
  8
01_表面形状
 62
     3
 66
     1
 10
0.0
 20
0.0
 30
0.0
 70
     1
  0
VERTEX
  5
DA8F
  8
01_表面形状
 62
     3
 10
772.1727597439117972
 20
-64.499269107092644
 30
0.0
  0
VERTEX
  5
DA90
  8
01_表面形状
 62
     3
 10
777.9462624358078529
 20
-64.499269107092644
 30
0.0
  0
VERTEX
  5
DA91
  8
01_表面形状
 62
     3
 10
780.8330137817561081
 20
-59.4992691070926867
 30
0.0
  0
VERTEX
  5
DA92
  8
01_表面形状
 62
     3
 10
777.9462624358078529
 20
-54.4992691070926298
 30
0.0
  0
VERTEX
  5
DA93
  8
01_表面形状
 62
     3
 10
772.1727597439117972
 20
-54.4992691070926298
 30
0.0
  0
VERTEX
  5
DA94
  8
01_表面形状
 62
     3
 10
769.2860083979635419
 20
-59.4992691070926298
 30
0.0
  0
SEQEND
  5
DA95
  8
01_表面形状
 62
     3
  0
CIRCLE
  5
D733
  8
01_表面形状
 62
     3
 10
775.0550831446280426
 20
-59.5004555714416199
 30
0.0
 40
4.9999999999999867
  0
LINE
  5
D734
  8
01_表面形状
 62
     3
 10
867.1780507952582866
 20
-54.5004555714417123
 30
0.0
 11
867.178050795258855
 21
-64.5004555714414636
 31
0.0
  0
LINE
  5
D735
  8
01_表面形状
 62
     3
 10
867.178050795258855
 20
-64.5004555714414636
 30
0.0
 11
867.1780507952586277
 21
-54.5004555714414707
 31
0.0
  0
LINE
  5
D736
  8
01_表面形状
 62
     3
 10
867.178050795258855
 20
-64.5004555714412504
 30
0.0
 11
869.9544606395387518
 21
-64.5004555714412788
 31
0.0
  0
LINE
  5
D737
  8
01_表面形状
 62
     3
 10
867.1780507952582866
 20
-54.5004555714412504
 30
0.0
 11
870.678050795258514
 21
-54.5004555714412504
 31
0.0
  0
LINE
  5
D738
  8
01_表面形状
 62
     3
 10
867.1780507952582866
 20
-54.5004555714417123
 30
0.0
 11
867.178050795258855
 21
-64.5004555714414636
 31
0.0
  0
LINE
  5
D739
  8
01_表面形状
 62
     3
 10
867.178050795258855
 20
-64.5004555714414636
 30
0.0
 11
867.1780507952586277
 21
-54.5004555714414707
 31
0.0
  0
LINE
  5
D73A
  8
01_表面形状
 62
     3
 10
867.178050795258855
 20
-64.5004555714412504
 30
0.0
 11
869.9544606395387518
 21
-64.5004555714412504
 31
0.0
  0
LINE
  5
D73B
  8
01_表面形状
 62
     3
 10
867.1780507952582866
 20
-54.5004555714412504
 30
0.0
 11
870.678050795258514
 21
-54.5004555714412504
 31
0.0
  0
ARC
  5
D73C
  8
01_表面形状
 62
     3
 10
874.39066891764503
 20
-62.000455571441357
 30
0.0
 40
7.2128607168649781
 50
159.720313315615897
 51
200.279686684384103
  0
ARC
  5
D73D
  8
01_表面形状
 62
     3
 10
874.3934240634978323
 20
-57.000455571441357
 30
0.0
 40
7.2154451395875938
 50
159.7278962371507021
 51
200.2721037628508043
  0
ARC
  5
D73E
  8
01_表面形状
 62
     3
 10
863.4631095559742562
 20
-62.0004555714414707
 30
0.0
 40
7.2149898748222761
 50
17.1075089088584811
 51
20.2734391282650108
  0
ARC
  5
D73F
  8
01_表面形状
 62
     3
 10
863.4618664614512227
 20
-57.0004555714414707
 30
0.0
 40
7.21615597207773
 50
339.729980864259403
 51
345.7123499158357731
  0
ARC
  5
D740
  8
01_表面形状
 62
     3
 10
863.4618664614512227
 20
-57.0004555714414707
 30
0.0
 40
7.21615597207773
 50
4.2876500841632978
 51
20.2700191357406112
  0
LINE
  5
D741
  8
01_表面形状
 62
     3
 10
870.678050795258514
 20
-54.5004555714412504
 30
0.0
 11
870.817175445118437
 21
-54.6395802213010029
 31
0.0
  0
LINE
  5
D742
  8
04_中心線
 62
   110
 10
864.5550440016377252
 20
-59.500455571441222
 30
0.0
 11
877.2798022635247435
 21
-59.500455571441222
 31
0.0
  0
POLYLINE
  5
D743
  8
01_表面形状
 62
     3
 66
     1
 10
0.0
 20
0.0
 30
0.0
 70
     1
  0
VERTEX
  5
DA96
  8
01_表面形状
 62
     3
 10
871.8880507952587777
 20
-99.5681868973476014
 30
0.0
  0
VERTEX
  5
DA97
  8
01_表面形状
 62
     3
 10
895.3880507952585504
 20
-113.1359182233039036
 30
0.0
  0
VERTEX
  5
DA98
  8
01_表面形状
 62
     3
 10
918.888050795258664
 20
-99.5681868973477435
 30
0.0
  0
VERTEX
  5
DA99
  8
01_表面形状
 62
     3
 10
918.888050795258664
 20
-72.4327242454353666
 30
0.0
  0
VERTEX
  5
DA9A
  8
01_表面形状
 62
     3
 10
895.3880507952587777
 20
-58.8649929194790715
 30
0.0
  0
VERTEX
  5
DA9B
  8
01_表面形状
 62
     3
 10
871.8880507952587777
 20
-72.4327242454351961
 30
0.0
  0
SEQEND
  5
DA9C
  8
01_表面形状
 62
     3
  0
CIRCLE
  5
D744
  8
01_表面形状
 62
     3
 10
895.3880507952585504
 20
-86.0004555713914272
 30
0.0
 40
19.4759980000000006
  0
CIRCLE
  5
D745
  8
01_表面形状
 62
     3
 10
895.3880507952585504
 20
-86.0004555713914272
 30
0.0
 40
20.9550020000000004
  0
LINE
  5
D746
  8
01_表面形状
 62
     3
 10
751.5550831446280426
 20
-58.8649929194790928
 30
0.0
 11
761.5550831446281563
 21
-58.8649929194791284
 31
0.0
  0
LINE
  5
D747
  8
01_表面形状
 62
     3
 10
824.5550831446280426
 20
-58.8649929194790715
 30
0.0
 11
833.5550831446280426
 21
-58.8649929194790928
 31
0.0
  0
LINE
  5
D748
  8
01_表面形状
 62
     3
 10
751.5550831446280426
 20
-72.4327242454352387
 30
0.0
 11
761.5550831446281563
 21
-72.4327242454352387
 31
0.0
  0
LINE
  5
D749
  8
01_表面形状
 62
     3
 10
824.5550831446280426
 20
-72.4327242454352387
 30
0.0
 11
833.5550831446280426
 21
-72.4327242454352387
 31
0.0
  0
LINE
  5
D74A
  8
01_表面形状
 62
     3
 10
751.5550831446280426
 20
-99.568186897347644
 30
0.0
 11
761.5550831446281563
 21
-99.5681868973476725
 31
0.0
  0
LINE
  5
D74B
  8
01_表面形状
 62
     3
 10
824.5550831446280426
 20
-99.568186897347644
 30
0.0
 11
833.5550831446280426
 21
-99.568186897347644
 31
0.0
  0
LINE
  5
D74C
  8
01_表面形状
 62
     3
 10
751.5550831446280426
 20
-113.1359182233039036
 30
0.0
 11
761.5550831446280426
 21
-113.1359182233039036
 31
0.0
  0
LINE
  5
D74E
  8
01_表面形状
 62
     3
 10
824.5550831446280426
 20
-113.1359182233039036
 30
0.0
 11
833.5550831446280426
 21
-113.1359182233039036
 31
0.0
  0
LINE
  5
D74F
  8
01_表面形状
 62
     3
 10
833.5550831446280426
 20
-113.1359182233039036
 30
0.0
 11
833.5550831446280426
 21
-58.8649929194790928
 31
0.0
  0
LINE
  5
D750
  8
01_表面形状
 62
     3
 10
824.5550831446280426
 20
-113.1359182233039036
 30
0.0
 11
824.5550831446280426
 21
-58.8649929194790928
 31
0.0
  0
LINE
  5
D751
  8
01_表面形状
 62
     3
 10
751.5550831446280426
 20
-113.1359182233039036
 30
0.0
 11
751.5550831446280426
 21
-58.864992919479171
 31
0.0
  0
LINE
  5
D752
  8
01_表面形状
 62
     3
 10
761.5550831446280426
 20
-113.1359182233039036
 30
0.0
 11
761.5550831446280426
 21
-58.864992919479171
 31
0.0
  0
LINE
  5
D753
  8
01_表面形状
 62
     3
 10
833.5550831446275879
 20
-0.5966229637071763
 30
0.0
 11
833.5550831446281563
 21
46.4033770362930227
 31
0.0
  0
LINE
  5
D754
  8
01_表面形状
 62
     3
 10
823.6890577408440777
 20
-0.5966229637071763
 30
0.0
 11
823.6890577408446461
 21
46.4033770362930227
 31
0.0
  0
LINE
  5
D755
  8
01_表面形状
 62
     3
 10
762.4211085484120076
 20
-0.5966229637074038
 30
0.0
 11
762.4211085484123487
 21
46.4033770362927811
 31
0.0
  0
LINE
  5
D756
  8
01_表面形状
 62
     3
 10
751.5550831446277016
 20
-0.5966229637070911
 30
0.0
 11
751.5550831446281563
 21
46.4033770362931293
 31
0.0
  0
LINE
  5
D757
  8
01_表面形状
 62
     3
 10
762.4211085484123487
 20
22.9033770362926816
 30
0.0
 11
751.5550831446280426
 21
22.903377036292909
 31
0.0
  0
LINE
  5
D758
  8
01_表面形状
 62
     3
 10
823.689057740844305
 20
22.903377036292909
 30
0.0
 11
833.5550831446280426
 21
22.903377036292909
 31
0.0
  0
TEXT
  5
D759
  8
12_文字
 62
   110
 10
752.7878532192341936
 20
-154.9024212605974071
 30
0.0
 40
4.1671809999999976
  1
        SWING CHECK VALVE 11/4
 41
0.9598549999999999
  7
MX_NOTE_STANDARD
 11
752.7878532192341936
 21
-152.8188307605973932
 31
0.0
 73
     2
  0
TEXT
  5
D75A
  8
12_文字
 62
   110
 10
752.7549532192342667
 20
-170.9024212605974071
 30
0.0
 40
4.1671809999999976
  1
TOA
 41
0.9124859999999999
  7
MX_NOTE_STANDARD
 11
752.7549532192342667
 21
-168.8188307605973932
 31
0.0
 73
     2
  0
TEXT
  5
D75B
  8
12_文字
 62
   110
 10
752.8473752192343227
 20
-162.9024212605972934
 30
0.0
 40
4.1671809999999976
  1
FIG   TS11/4
 41
1.0455570000000001
  7
MX_NOTE_STANDARD
 11
752.8473752192343227
 21
-160.8188307605973932
 31
0.0
 73
     2
  0
TEXT
  5
D75C
  8
12_文字
 62
   110
 10
752.7570942192340908
 20
-146.9024212605974071
 30
0.0
 40
4.1671809999999976
  1
NAME  CLASS 125 CAST BRASS
 41
0.9155689999999999
  7
MX_NOTE_STANDARD
 11
752.7570942192340908
 21
-144.8188307605973932
 31
0.0
 73
     2
  0
LINE
  5
D75D
  8
01_表面形状
 62
     3
 10
870.888050795258323
 20
-43.5004555713906598
 30
0.0
 11
919.888050795258323
 21
-43.5004555713906598
 31
0.0
  0
LINE
  5
D75E
  8
01_表面形状
 62
     3
 10
870.888050795258323
 20
-46.0004555713906598
 30
0.0
 11
919.888050795258323
 21
-46.0004555713906598
 31
0.0
  0
LINE
  5
D90A
  8
01_表面形状
 62
     3
 10
799.6277183531334458
 20
-82.6504555890047641
 30
0.0
 11
799.6297757569361693
 21
-82.6504555890047641
 31
0.0
  0
LINE
  5
D90B
  8
01_表面形状
 62
     3
 10
797.5597204099208284
 20
-88.5129555581814316
 30
0.0
 11
801.0574393969990297
 21
-88.5129555581817442
 31
0.0
  0
LINE
  5
D90C
  8
01_表面形状
 62
     3
 10
798.8755791014176566
 20
-87.6754555625848155
 30
0.0
 11
800.2199394014021436
 21
-87.6754555625850855
 31
0.0
  0
LINE
  5
D90D
  8
01_表面形状
 62
     3
 10
799.6277183531334458
 20
-84.3254555801980956
 30
0.0
 11
799.6297757569360556
 21
-84.3254555801980956
 31
0.0
  0
LINE
  5
D90E
  8
01_表面形状
 62
     3
 10
796.8189992502174164
 20
-84.8056615583242035
 30
0.0
 11
795.8837137381217417
 21
-88.2961946090478307
 31
0.0
  0
LINE
  5
D90F
  8
01_表面形状
 62
     3
 10
798.43692500074485
 20
-85.2391834565916753
 30
0.0
 11
798.0666162261539966
 21
-86.6211946178544139
 31
0.0
  0
LINE
  5
D910
  8
01_表面形状
 62
     3
 10
797.5597204099208284
 20
-88.5129555581814316
 30
0.0
 11
797.50163948864963
 21
-88.7297165073153735
 31
0.0
  0
LINE
  5
D911
  8
01_表面形状
 62
     3
 10
802.7324393881922333
 20
-85.5582555737165933
 30
0.0
 11
802.7324393881920059
 21
-88.5129555581817442
 31
0.0
  0
LINE
  5
D912
  8
01_表面形状
 62
     3
 10
801.0574393969990297
 20
-85.5582555737165933
 30
0.0
 11
801.0574393969990297
 21
-86.837955566988299
 31
0.0
  0
ARC
  5
D913
  8
01_表面形状
 62
     3
 10
796.692676613385288
 20
-88.5129555581814316
 30
0.0
 40
0.8374999955966703
 50
165.0000000000021885
 51
344.999999999986187
  0
ARC
  5
D914
  8
01_表面形状
 62
     3
 10
801.8949393925953473
 20
-88.5129555581817442
 30
0.0
 40
0.8374999955966703
 50
180.0
 51
0.0
  0
ARC
  5
D915
  8
01_表面形状
 62
     3
 10
798.8755791014176566
 20
-86.8379555669881569
 30
0.0
 40
0.8374999955966703
 50
165.0000000000021885
 51
270.0
  0
ARC
  5
D916
  8
01_表面形状
 62
     3
 10
800.2199394014021436
 20
-86.8379555669883842
 30
0.0
 40
0.8374999955966703
 50
270.0
 51
0.0000000000032569
  0
LINE
  5
D917
  8
01_表面形状
 62
     3
 10
782.2234716402142567
 20
-84.3254555801976835
 30
0.0
 11
783.0783467832667384
 21
-84.3254555801976835
 31
0.0
  0
LINE
  5
D918
  8
01_表面形状
 62
     3
 10
786.1098757279254414
 20
-84.3254555801976835
 30
0.0
 11
787.4257344194227244
 21
-84.3254555801976835
 31
0.0
  0
ARC
  5
D919
  8
01_表面形状
 62
     3
 10
786.1098757279254414
 20
-85.1629555757944559
 30
0.0
 40
0.8374999955966703
 50
90.0
 51
165.0000000000003979
  0
ARC
  5
D91A
  8
01_表面形状
 62
     3
 10
783.0783467832667384
 20
-84.8279555775557839
 30
0.0
 40
0.5024999973580023
 50
345.0000000000003979
 51
90.0
  0
ARC
  5
D91B
  8
01_表面形状
 62
     3
 10
799.7099758058119505
 20
-85.6654555731525136
 30
0.0
 40
3.014999984148012
 50
89.9290824560212769
 51
165.3312556800393907
  0
ARC
  5
D91C
  8
01_表面形状
 62
     3
 10
799.7174394040443985
 20
-85.6654555731525136
 30
0.0
 40
3.014999984148012
 50
359.9999999999902229
 51
90.0709175439656633
  0
ARC
  5
D91D
  8
01_表面形状
 62
     3
 10
799.7099758058124053
 20
-85.6654555731527836
 30
0.0
 40
1.339999992954672
 50
89.8404353605604769
 51
165.4968843844492028
  0
ARC
  5
D91E
  8
01_表面形状
 62
     3
 10
799.7174394040443985
 20
-85.6654555731527836
 30
0.0
 40
1.339999992954672
 50
0.0
 51
90.1595646394394947
  0
LINE
  5
D91F
  8
01_表面形状
 62
     3
 10
791.7331728776921409
 20
-82.6504555890047641
 30
0.0
 11
793.7365494077390622
 21
-82.6504555890047641
 31
0.0
  0
LINE
  5
D920
  8
01_表面形状
 62
     3
 10
790.2439054268877499
 20
-89.3504555537781471
 30
0.0
 11
792.2472819569351259
 21
-89.3504555537781471
 31
0.0
  0
LINE
  5
D921
  8
01_表面形状
 62
     3
 10
791.3292394722254812
 20
-88.5129555581814316
 30
0.0
 11
791.5087654302105875
 21
-88.5129555581814316
 31
0.0
  0
ARC
  5
D922
  8
01_表面形状
 62
     3
 10
791.5087654302105875
 20
-86.5029555687494423
 30
0.0
 40
2.0099999894320071
 50
270.0
 51
345.0000000000022169
  0
LINE
  5
D923
  8
01_表面形状
 62
     3
 10
791.7331728776921409
 20
-82.6504555890047641
 30
0.0
 11
793.7365494077390622
 21
-82.6504555890047641
 31
0.0
  0
ARC
  5
D924
  8
01_表面形状
 62
     3
 10
793.7365494077390622
 20
-84.660455578436796
 30
0.0
 40
2.0099999894320071
 50
345.0000000000003979
 51
90.0
  0
ARC
  5
D925
  8
01_表面形状
 62
     3
 10
791.7331728776921409
 20
-85.6654555731527836
 30
0.0
 40
3.014999984148012
 50
90.0
 51
165.0000000000003979
  0
LINE
  5
D926
  8
01_表面形状
 62
     3
 10
792.4716894044166793
 20
-83.4879555846014227
 30
0.0
 11
792.6512153624009898
 21
-83.4879555846014227
 31
0.0
  0
ARC
  5
D927
  8
01_表面形状
 62
     3
 10
792.4716894044166793
 20
-85.4979555740333694
 30
0.0
 40
2.0099999894320071
 50
90.0
 51
165.0000000000003979
  0
LINE
  5
D928
  8
01_表面形状
 62
     3
 10
788.8209065267425331
 20
-84.8851161562714935
 30
0.0
 11
788.3023945262546022
 21
-86.8202292864253735
 31
0.0
  0
ARC
  5
D929
  8
01_表面形状
 62
     3
 10
790.2439054268877499
 20
-87.3404555643461293
 30
0.0
 40
2.0099999894320071
 50
165.0000000000003979
 51
270.0
  0
LINE
  5
D92A
  8
01_表面形状
 62
     3
 10
790.5301785037835316
 20
-84.9777292961122868
 30
0.0
 11
790.0348988718039891
 21
-86.8261380466126695
 31
0.0
  0
ARC
  5
D92B
  8
01_表面形状
 62
     3
 10
791.3292394722254812
 20
-87.1729555652268289
 30
0.0
 40
1.339999992954672
 50
165.0000000000003979
 51
270.0
  0
LINE
  5
D92C
  8
01_表面形状
 62
     3
 10
795.6780603083727783
 20
-85.1806818563576655
 30
0.0
 11
795.1595483078849611
 21
-87.1157949865115597
 31
0.0
  0
ARC
  5
D92D
  8
01_表面形状
 62
     3
 10
792.2472819569351259
 20
-86.3354555696301134
 30
0.0
 40
3.014999984148012
 50
270.0
 51
345.0000000000003979
  0
LINE
  5
D92E
  8
01_表面形状
 62
     3
 10
793.9455559628230503
 20
-85.1747730961700142
 30
0.0
 11
793.4502763308438489
 21
-87.0231818466702549
 31
0.0
  0
ARC
  5
D92F
  8
01_表面形状
 62
     3
 10
792.6512153624009898
 20
-84.8279555775561249
 30
0.0
 40
1.339999992954672
 50
345.0000000000022169
 51
90.0
  0
LINE
  5
D930
  8
01_表面形状
 62
     3
 10
799.6277183531334458
 20
-82.6504555890047641
 30
0.0
 11
799.6297757569361693
 21
-82.6504555890047641
 31
0.0
  0
LINE
  5
D931
  8
01_表面形状
 62
     3
 10
797.5597204099208284
 20
-88.5129555581814316
 30
0.0
 11
801.0574393969990297
 21
-88.5129555581817442
 31
0.0
  0
LINE
  5
D932
  8
01_表面形状
 62
     3
 10
798.8755791014176566
 20
-87.6754555625848155
 30
0.0
 11
800.2199394014021436
 21
-87.6754555625850855
 31
0.0
  0
LINE
  5
D933
  8
01_表面形状
 62
     3
 10
799.6277183531334458
 20
-84.3254555801980956
 30
0.0
 11
799.6297757569360556
 21
-84.3254555801980956
 31
0.0
  0
LINE
  5
D934
  8
01_表面形状
 62
     3
 10
796.7977094548618879
 20
-84.8851161562711951
 30
0.0
 11
795.8837137381217417
 21
-88.2961946090478307
 31
0.0
  0
LINE
  5
D935
  8
01_表面形状
 62
     3
 10
798.43692500074485
 20
-85.2391834565916753
 30
0.0
 11
798.0666162261539966
 21
-86.6211946178545134
 31
0.0
  0
LINE
  5
D936
  8
01_表面形状
 62
     3
 10
797.5597204099208284
 20
-88.5129555581814316
 30
0.0
 11
797.50163948864963
 21
-88.7297165073153735
 31
0.0
  0
LINE
  5
D937
  8
01_表面形状
 62
     3
 10
802.7324393881922333
 20
-85.5582555737165933
 30
0.0
 11
802.7324393881920059
 21
-88.5129555581819432
 31
0.0
  0
LINE
  5
D938
  8
01_表面形状
 62
     3
 10
801.0574393969990297
 20
-85.6654555731527836
 30
0.0
 11
801.0574393969990297
 21
-86.837955566988299
 31
0.0
  0
ARC
  5
D939
  8
01_表面形状
 62
     3
 10
796.692676613385288
 20
-88.5129555581814316
 30
0.0
 40
0.8374999955966703
 50
165.0000000000021885
 51
344.999999999986187
  0
ARC
  5
D93A
  8
01_表面形状
 62
     3
 10
801.8949393925953473
 20
-88.5129555581817442
 30
0.0
 40
0.8374999955966703
 50
180.0
 51
0.0
  0
ARC
  5
D93B
  8
01_表面形状
 62
     3
 10
798.8755791014176566
 20
-86.8379555669881569
 30
0.0
 40
0.8374999955966703
 50
165.0000000000021885
 51
270.0
  0
ARC
  5
D93C
  8
01_表面形状
 62
     3
 10
800.2199394014021436
 20
-86.8379555669884837
 30
0.0
 40
0.8374999955966703
 50
270.0
 51
0.0000000000032569
  0
ARC
  5
D93D
  8
01_表面形状
 62
     3
 10
799.7099758058119505
 20
-85.6654555731525136
 30
0.0
 40
3.014999984148012
 50
89.9290824560212769
 51
165.3312556800393907
  0
ARC
  5
D93E
  8
01_表面形状
 62
     3
 10
799.7174394040443985
 20
-85.6654555731525136
 30
0.0
 40
3.014999984148012
 50
359.9999999999902229
 51
90.0709175439656633
  0
ARC
  5
D93F
  8
01_表面形状
 62
     3
 10
799.7099758058124053
 20
-85.6654555731527836
 30
0.0
 40
1.339999992954672
 50
89.8404353605604769
 51
165.4968843844492028
  0
ARC
  5
D940
  8
01_表面形状
 62
     3
 10
799.7174394040443985
 20
-85.6654555731527836
 30
0.0
 40
1.339999992954672
 50
0.0
 51
90.1595646394394947
  0
LINE
  5
D941
  8
01_表面形状
 62
     3
 10
782.2234716402142567
 20
-82.6504555890047641
 30
0.0
 11
787.4257344194227244
 21
-82.6504555890047641
 31
0.0
  0
LINE
  5
D942
  8
01_表面形状
 62
     3
 10
785.3009128526616678
 20
-84.9461946266611108
 30
0.0
 11
784.2871212201948765
 21
-88.7297165073152314
 31
0.0
  0
LINE
  5
D943
  8
01_表面形状
 62
     3
 10
785.3009128526616678
 20
-84.9461946266611108
 30
0.0
 11
784.2871212201948765
 21
-88.7297165073152314
 31
0.0
  0
LINE
  5
D944
  8
01_表面形状
 62
     3
 10
785.3009128526616678
 20
-84.9461946266607413
 30
0.0
 11
784.2871212201948765
 21
-88.7297165073152314
 31
0.0
  0
ARC
  5
D945
  8
01_表面形状
 62
     3
 10
782.2234716402142567
 20
-83.4879555846014227
 30
0.0
 40
0.8374999955966703
 50
90.0
 51
270.0
  0
ARC
  5
D946
  8
01_表面形状
 62
     3
 10
787.4257344194227244
 20
-83.4879555846014227
 30
0.0
 40
0.8374999955966703
 50
270.0
 51
90.0
  0
ARC
  5
D947
  8
01_表面形状
 62
     3
 10
783.4781583449307618
 20
-88.5129555581814316
 30
0.0
 40
0.8374999955966703
 50
164.2944179854791003
 51
345.0000000000003979
  0
LINE
  5
D948
  8
01_表面形状
 62
     3
 10
783.5637245084254801
 20
-84.9580121470360723
 30
0.0
 11
782.6665875245910229
 21
-88.3061729520532737
 31
0.0
  0
VIEWPORT
  5
542
 67
     1
  8
0
 10
185.6233038915470104
 20
148.4223392912986128
 30
0.0
 40
450.4060917083240838
 41
309.2814998667927853
 68
     1
 69
     1
1001
ACAD
1000
MVIEW
1002
{
1070
    16
1010
0.0
1020
0.0
1030
0.0
1010
0.0
1020
0.0
1030
1.0
1040
0.0
1040
309.2814998667927853
1040
185.6233038915470104
1040
148.4223392912986128
1040
50.0
1040
0.0
1040
0.0
1070
     0
1070
  1000
1070
     1
1070
     1
1070
     0
1070
     0
1070
     0
1070
     0
1040
0.0
1040
0.0
1040
0.0
1040
10.0
1040
10.0
1040
10.0
1040
10.0
1070
     0
1002
{
1002
}
1002
}
  0
ENDSEC
  0
EOF
