  0
SECTION
  2
HEADER
  9
$ACADVER
  1
AC1009
  9
$INSBASE
 10
0.0
 20
0.0
 30
0.0
  9
$EXTMIN
 10
847.9151070842736999
 20
-107.8743087761414046
 30
-0.0000000349181948
  9
$EXTMAX
 10
1006.9337573228599467
 20
90.9365786172235175
 30
0.0000000814935747
  9
$LIMMIN
 10
0.0
 20
0.0
  9
$LIMMAX
 10
297.0
 20
210.0
  9
$ORTHOMODE
 70
     0
  9
$REGENMODE
 70
     1
  9
$FILLMODE
 70
     1
  9
$QTEXTMODE
 70
     0
  9
$MIRRTEXT
 70
     0
  9
$DRAGMODE
 70
     2
  9
$LTSCALE
 40
0.4
  9
$OSMODE
 70
  1447
  9
$ATTMODE
 70
     1
  9
$TEXTSIZE
 40
5.0
  9
$TRACEWID
 40
1.0
  9
$TEXTSTYLE
  7
STANDARD
  9
$CLAYER
  8
0
  9
$CELTYPE
  6
BYLAYER
  9
$CECOLOR
 62
   256
  9
$DIMSCALE
 40
1.0
  9
$DIMASZ
 40
2.5
  9
$DIMEXO
 40
1.0
  9
$DIMDLI
 40
10.0
  9
$DIMRND
 40
0.0
  9
$DIMDLE
 40
0.0
  9
$DIMEXE
 40
1.0
  9
$DIMTP
 40
0.1
  9
$DIMTM
 40
0.1
  9
$DIMTXT
 40
2.5
  9
$DIMCEN
 40
0.0
  9
$DIMTSZ
 40
0.0
  9
$DIMTOL
 70
     0
  9
$DIMLIM
 70
     0
  9
$DIMTIH
 70
     0
  9
$DIMTOH
 70
     0
  9
$DIMSE1
 70
     0
  9
$DIMSE2
 70
     0
  9
$DIMTAD
 70
     3
  9
$DIMZIN
 70
     8
  9
$DIMBLK
  1

  9
$DIMASO
 70
     1
  9
$DIMSHO
 70
     1
  9
$DIMPOST
  1

  9
$DIMAPOST
  1

  9
$DIMALT
 70
     0
  9
$DIMALTD
 70
     2
  9
$DIMALTF
 40
25.3999999999999986
  9
$DIMLFAC
 40
1.0
  9
$DIMTOFL
 70
     1
  9
$DIMTVP
 40
0.0
  9
$DIMTIX
 70
     0
  9
$DIMSOXD
 70
     0
  9
$DIMSAH
 70
     0
  9
$DIMBLK1
  1

  9
$DIMBLK2
  1

  9
$DIMSTYLE
  2
部品図用_1_1
  9
$DIMCLRD
 70
   256
  9
$DIMCLRE
 70
   256
  9
$DIMCLRT
 70
   256
  9
$DIMTFAC
 40
0.7
  9
$DIMGAP
 40
1.0
  9
$LUNITS
 70
     2
  9
$LUPREC
 70
     2
  9
$SKETCHINC
 40
1.0
  9
$FILLETRAD
 40
0.0
  9
$AUNITS
 70
     1
  9
$AUPREC
 70
     3
  9
$MENU
  1
.
  9
$ELEVATION
 40
0.0
  9
$PELEVATION
 40
0.0
  9
$THICKNESS
 40
0.0
  9
$LIMCHECK
 70
     0
  9
$BLIPMODE
 70
     0
  9
$CHAMFERA
 40
0.0
  9
$CHAMFERB
 40
0.0
  9
$SKPOLY
 70
     0
  9
$TDCREATE
 40
2457049.1083796299062669
  9
$TDUPDATE
 40
2460132.4777430552057922
  9
$TDINDWG
 40
0.249813287
  9
$TDUSRTIMER
 40
0.249813287
  9
$USRTIMER
 70
     1
  9
$ANGBASE
 50
0.0
  9
$ANGDIR
 70
     0
  9
$PDMODE
 70
     3
  9
$PDSIZE
 40
0.0
  9
$PLINEWID
 40
0.0
  9
$COORDS
 70
     1
  9
$SPLFRAME
 70
     0
  9
$SPLINETYPE
 70
     6
  9
$SPLINESEGS
 70
     8
  9
$ATTDIA
 70
     1
  9
$ATTREQ
 70
     1
  9
$HANDLING
 70
     1
  9
$HANDSEED
  5
DB38
  9
$SURFTAB1
 70
     6
  9
$SURFTAB2
 70
     6
  9
$SURFTYPE
 70
     6
  9
$SURFU
 70
     6
  9
$SURFV
 70
     6
  9
$UCSNAME
  2

  9
$UCSORG
 10
0.0
 20
0.0
 30
0.0
  9
$UCSXDIR
 10
1.0
 20
0.0
 30
0.0
  9
$UCSYDIR
 10
0.0
 20
1.0
 30
0.0
  9
$PUCSNAME
  2

  9
$PUCSORG
 10
0.0
 20
0.0
 30
0.0
  9
$PUCSXDIR
 10
1.0
 20
0.0
 30
0.0
  9
$PUCSYDIR
 10
0.0
 20
1.0
 30
0.0
  9
$USERI1
 70
     0
  9
$USERI2
 70
     0
  9
$USERI3
 70
     0
  9
$USERI4
 70
     0
  9
$USERI5
 70
     0
  9
$USERR1
 40
0.0
  9
$USERR2
 40
0.0
  9
$USERR3
 40
0.0
  9
$USERR4
 40
0.0
  9
$USERR5
 40
0.0
  9
$WORLDVIEW
 70
     1
  9
$SHADEDGE
 70
     3
  9
$SHADEDIF
 70
    70
  9
$TILEMODE
 70
     1
  9
$MAXACTVP
 70
    64
  9
$PLIMCHECK
 70
     0
  9
$PEXTMIN
 10
1.0000000000000000E+20
 20
1.0000000000000000E+20
 30
1.0000000000000000E+20
  9
$PEXTMAX
 10
-1.0000000000000000E+20
 20
-1.0000000000000000E+20
 30
-1.0000000000000000E+20
  9
$PLIMMIN
 10
-5.873748779296875
 20
-5.8737497329711914
  9
$PLIMMAX
 10
291.1369018554688068
 20
204.0995779037475018
  9
$UNITMODE
 70
     0
  9
$VISRETAIN
 70
     1
  9
$PLINEGEN
 70
     0
  9
$PSLTSCALE
 70
     1
  0
ENDSEC
  0
SECTION
  2
TABLES
  0
TABLE
  2
VPORT
 70
     1
  0
VPORT
  2
*ACTIVE
 70
     0
 10
0.0
 20
0.0
 11
1.0
 21
1.0
 12
927.4244322035669938
 22
-8.4688650794589648
 13
0.0
 23
0.0
 14
10.0
 24
10.0
 15
10.0
 25
10.0
 16
0.0
 26
0.0
 36
1.0
 17
0.0
 27
0.0
 37
0.0
 40
200.1760467763232043
 41
1.765830346475507
 42
50.0
 43
0.0
 44
0.0
 50
0.0
 51
0.0
 71
     0
 72
  1000
 73
     1
 74
     3
 75
     0
 76
     0
 77
     0
 78
     0
  0
ENDTAB
  0
TABLE
  2
LTYPE
 70
     3
  0
LTYPE
  2
CONTINUOUS
 70
     0
  3
Solid line
 72
    65
 73
     0
 40
0.0
  0
LTYPE
  2
CENTER
 70
     0
  3
Center ____ _ ____ _ ____ _ ____ _ ____ _ ____
 72
    65
 73
     4
 40
50.7999999999999972
 49
31.75
 49
-6.3499999999999979
 49
6.3499999999999979
 49
-6.3499999999999979
  0
ENDTAB
  0
TABLE
  2
LAYER
 70
     7
  0
LAYER
  2
0
 70
     0
 62
     7
  6
CONTINUOUS
  0
LAYER
  2
01_表面形状
 70
     0
 62
     7
  6
CONTINUOUS
  0
LAYER
  2
04_中心線
 70
     0
 62
     4
  6
CENTER
  0
LAYER
  2
12_文字
 70
     0
 62
     2
  6
CONTINUOUS
  0
LAYER
  2
DEFPOINTS
 70
     0
 62
     7
  6
CONTINUOUS
  0
ENDTAB
  0
TABLE
  2
STYLE
 70
     2
  0
STYLE
  2
STANDARD
 70
     0
 40
0.0
 41
1.0
 50
0.0
 71
     0
 42
5.0
  3
isocp.shx
  4
extfont2.shx
  0
STYLE
  2
MX_NOTE_STANDARD
 70
     0
 40
0.0
 41
1.0
 50
0.0
 71
     0
 42
3.299999999999998
  3
txt.shx
  4
extfont.shx
  0
ENDTAB
  0
TABLE
  2
VIEW
 70
     2
  0
ENDTAB
  0
TABLE
  2
UCS
 70
     0
  0
ENDTAB
  0
TABLE
  2
APPID
 70
    38
  0
APPID
  2
ACAD
 70
     0
  0
APPID
  2
ACAECLAYERSTANDARD
 70
     0
  0
APPID
  2
ACAD_PSEXT
 70
     0
  0
APPID
  2
ACAD_EXEMPT_FROM_CAD_STANDARDS
 70
     0
  0
APPID
  2
GENIUS_GENODEF_13
 70
     0
  0
APPID
  2
GENIUS_GENOBJ-N-CEN_13
 70
     0
  0
APPID
  2
GENIUS_GENCEN_19
 70
     0
  0
APPID
  2
GENIUS_GENTRA_14
 70
     0
  0
APPID
  2
GENIUS_GENOREF_13
 70
     0
  0
APPID
  2
GENIUS_GENSCREG_15
 70
     0
  0
APPID
  2
GENIUS_GENOBJ-N-SDF_13
 70
     0
  0
APPID
  2
GENIUS_GENOBJ-N-LIB_13
 70
     0
  0
APPID
  2
GENIUS_GENOBJ-N-RSBK_13
 70
     0
  0
APPID
  2
GENIUS_GENSCALE_13
 70
     0
  0
APPID
  2
GENIUS_AMGTXT_16
 70
     0
  0
APPID
  2
GENIUS_GENFIL_13
 70
     0
  0
APPID
  2
GENIUS_GENOBJ-N-CHA_13
 70
     0
  0
APPID
  2
GENIUS_GENOBJ-N-FIL_13
 70
     0
  0
APPID
  2
GENIUS_GENDTOL_13
 70
     0
  0
APPID
  2
ACAD_DIMASSOC_DIMLFAC
 70
     0
  0
APPID
  2
ACAD_DIMASSOC_CALC_DIMLFAC
 70
     0
  0
APPID
  2
ACAD_DIMASSOC_OVERRIDDEN_D
 70
     0
  0
APPID
  2
GENIUS_GENOBJ-N-ZOO_13
 70
     0
  0
APPID
  2
GENIUS_GENZOO_16
 70
     0
  0
APPID
  2
ACAD_DSTYLE_DIMJAG
 70
     0
  0
APPID
  2
ACAD_DSTYLE_DIMTALN
 70
     0
  0
APPID
  2
ACAD_DSTYLE_DIMBREAK
 70
     0
  0
APPID
  2
ACAD_DSTYLE_DIMARC_LENGTH_
 70
     0
  0
APPID
  2
ACAD_DSTYLE_DIMJOGGED_JOGA
 70
     0
  0
APPID
  2
ACAD_DSTYLE_DIM_LINETYPE
 70
     0
  0
APPID
  2
ACAD_DSTYLE_DIM_EXT1_LINETYPE
 70
     0
  0
APPID
  2
ACAD_DSTYLE_DIM_EXT2_LINETYPE
 70
     0
  0
APPID
  2
ACDBATTR
 70
     0
  0
APPID
  2
ACAD_MLEADERVER
 70
     0
  0
APPID
  2
ACAD_DSTYLE_DIMRADIAL_EXTENSION
 70
     0
  0
APPID
  2
ACADANNOPO
 70
     0
  0
APPID
  2
ACAUTHENVIRON
 70
     0
  0
APPID
  2
ACAD_NAV_VCDISPLAY
 70
     0
  0
ENDTAB
  0
TABLE
  2
DIMSTYLE
 70
     2
  0
DIMSTYLE
  2
部品図用_1_1
 70
     0
  3

  4

  5

  6

  7

 40
1.0
 41
2.5
 42
1.0
 43
10.0
 44
1.0
 45
0.0
 46
0.0
 47
0.1
 48
0.1
140
2.5
141
0.0
142
0.0
143
25.3999999999999986
144
1.0
145
0.0
146
0.7
147
1.0
 71
     0
 72
     0
 73
     0
 74
     0
 75
     0
 76
     0
 77
     3
 78
     8
170
     0
171
     2
172
     1
173
     0
174
     0
175
     0
176
   256
177
   256
178
   256
  0
DIMSTYLE
  2
STANDARD
 70
     0
  3

  4

  5
OPEN30
  6

  7

 40
1.0
 41
0.18
 42
0.0625
 43
0.38
 44
0.18
 45
0.0
 46
0.0
 47
0.0
 48
0.0
140
0.18
141
0.09
142
0.0
143
25.3999999999999986
144
1.0
145
0.0
146
1.0
147
0.09
 71
     0
 72
     0
 73
     0
 74
     0
 75
     0
 76
     0
 77
     1
 78
     0
170
     0
171
     2
172
     1
173
     0
174
     0
175
     0
176
     0
177
     0
178
     0
  0
ENDTAB
  0
ENDSEC
  0
SECTION
  2
BLOCKS
  0
BLOCK
  8
0
  2
$MODEL_SPACE
 70
     2
 10
0.0
 20
0.0
 30
0.0
  3
$MODEL_SPACE
  1

  0
ENDBLK
  5
39
  8
0
  0
BLOCK
 67
     1
  8
0
  2
$PAPER_SPACE
 70
     0
 10
0.0
 20
0.0
 30
0.0
  3
$PAPER_SPACE
  1

  0
ENDBLK
  5
35
 67
     1
  8
0
  0
BLOCK
  8
0
  2
_OPEN30
 70
     0
 10
0.0
 20
0.0
 30
0.0
  3
_OPEN30
  1

  0
LINE
  5
93EB
  8
0
  6
BYBLOCK
 62
     0
 10
-1.0
 20
0.26794919
 30
0.0
 11
0.0
 21
0.0
 31
0.0
  0
LINE
  5
93EC
  8
0
  6
BYBLOCK
 62
     0
 10
0.0
 20
0.0
 30
0.0
 11
-1.0
 21
-0.26794919
 31
0.0
  0
LINE
  5
93ED
  8
0
  6
BYBLOCK
 62
     0
 10
0.0
 20
0.0
 30
0.0
 11
-1.0
 21
0.0
 31
0.0
  0
ENDBLK
  5
93EE
  8
0
  0
ENDSEC
  0
SECTION
  2
ENTITIES
  0
ARC
  5
D687
  8
01_表面形状
 62
     3
 10
977.8722970883319476
 20
-34.5227489105928811
 30
0.0
 40
24.0
 50
162.2047725912165106
 51
17.7952274087835107
  0
ARC
  5
D688
  8
01_表面形状
 62
     3
 10
880.4798807335298534
 20
41.1068584940783808
 30
0.0
 40
0.5
 50
70.274091704930342
 51
177.0000000000140119
  0
ARC
  5
D689
  8
01_表面形状
 62
     3
 10
887.9432857982892529
 20
61.9216784934611724
 30
0.0
 40
21.6124206446813787
 50
250.2740917049302993
 51
204.5678317386370964
  0
ARC
  5
D68A
  8
01_表面形状
 62
     3
 10
887.9432857982892529
 20
63.9216784934610587
 30
0.0
 40
22.0
 50
90.0
 51
125.8342221227791953
  0
ARC
  5
D68B
  8
01_表面形状
 62
     3
 10
887.9432857982892529
 20
59.9216784934612789
 30
0.0
 40
22.0
 50
247.6648965804795921
 51
270.0
  0
LINE
  5
D68C
  8
01_表面形状
 62
     3
 10
852.9432857982894802
 20
43.9216784934613926
 30
0.0
 11
852.9432857982891392
 21
79.9216784934609166
 31
0.0
  0
LINE
  5
D68D
  8
01_表面形状
 62
     3
 10
852.9432857982894802
 20
42.9216784934622879
 30
0.0
 11
862.8381787155342408
 21
42.9216784934622879
 31
0.0
  0
ARC
  5
D68E
  8
01_表面形状
 62
     3
 10
879.4688035149317784
 20
40.9216784934611724
 30
0.0
 40
0.5
 50
270.0
 51
357.00000000000108
  0
LINE
  5
D68F
  8
01_表面形状
 62
     3
 10
879.9805659661526533
 20
41.1330264721997167
 30
0.0
 11
879.9681182823090921
 21
40.8955105153396374
 31
0.0
  0
LINE
  5
D690
  8
01_表面形状
 62
     3
 10
874.4432857982894802
 20
40.4216784934611724
 30
0.0
 11
879.4688035149317784
 21
40.4216784934611724
 31
0.0
  0
LINE
  5
D691
  8
01_表面形状
 62
     3
 10
868.2874444395846467
 20
52.9358771043766865
 30
0.0
 11
868.9184533142695273
 21
40.8955105153396374
 31
0.0
  0
ARC
  5
D692
  8
01_表面形状
 62
     3
 10
864.2687093065220552
 20
40.1920923844968385
 30
0.0
 40
3.0817297250099358
 50
100.5549262146244018
 51
117.6582844869942051
  0
ARC
  5
D693
  8
01_表面形状
 62
     3
 10
869.4177680816467273
 20
40.9216784934611724
 30
0.0
 40
0.5
 50
182.9999999999988916
 51
270.0
  0
LINE
  5
D694
  8
01_表面形状
 62
     3
 10
868.7965440162970481
 20
43.2216784934611127
 30
0.0
 11
863.7042041193185469
 21
43.2216784934611127
 31
0.0
  0
LINE
  5
D695
  8
01_表面形状
 62
     3
 10
874.4432857982894802
 20
40.4216784934611724
 30
0.0
 11
869.4177680816467273
 21
40.4216784934611724
 31
0.0
  0
LINE
  5
D696
  8
01_表面形状
 62
     3
 10
852.9432857982894802
 20
80.9216784934600355
 30
0.0
 11
862.8381787155342408
 21
80.9216784934600355
 31
0.0
  0
ARC
  5
D697
  8
01_表面形状
 62
     3
 10
864.2687093065220552
 20
83.6512646024254849
 30
0.0
 40
3.0817297250099358
 50
242.3417155130057097
 51
259.4450737853755982
  0
LINE
  5
D698
  8
01_表面形状
 62
     3
 10
871.5509095214953277
 20
80.6216784934611894
 30
0.0
 11
863.7042041193185469
 21
80.6216784934611894
 31
0.0
  0
ARC
  5
D699
  8
01_表面形状
 62
     3
 10
871.5509095214953277
 20
86.6216784934611752
 30
0.0
 40
6.0
 50
270.0
 51
305.8342221227936193
  0
LINE
  5
D69A
  8
01_表面形状
 62
     3
 10
956.8722970883320613
 20
1.97725108940716
 30
0.0
 11
956.8722970883316066
 21
-6.0227489105912166
 31
0.0
  0
LINE
  5
D69B
  8
01_表面形状
 62
     3
 10
956.8722970883320613
 20
-6.0227489105928651
 30
0.0
 11
955.0205806145945644
 21
-27.18796505529642
 31
0.0
  0
LINE
  5
D69C
  8
01_表面形状
 62
     3
 10
922.9432857982891392
 20
43.9216784934613926
 30
0.0
 11
922.9432857982893665
 21
79.9216784934608029
 31
0.0
  0
ARC
  5
D69D
  8
01_表面形状
 62
     3
 10
887.9432857982892529
 20
92.9216784934612576
 30
0.0
 40
55.0
 50
270.0
 51
292.3595296512972936
  0
ARC
  5
D69E
  8
01_表面形状
 62
     3
 10
906.0891879901517996
 20
48.8080044949905414
 30
0.0
 40
7.299999999999998
 50
292.3595296512972936
 51
307.4175442033874788
  0
ARC
  5
D69F
  8
01_表面形状
 62
     3
 10
911.7400452878659962
 20
41.4216784934611724
 30
0.0
 40
2.0
 50
90.0
 51
127.417544203387493
  0
LINE
  5
D6A0
  8
01_表面形状
 62
     3
 10
911.7400452878659962
 20
43.4216784934611724
 30
0.0
 11
912.0668974234222333
 21
43.4216784934611724
 31
0.0
  0
ARC
  5
D6A1
  8
01_表面形状
 62
     3
 10
912.0668974234222333
 20
42.4216784934611724
 30
0.0
 40
1.0
 50
30.0000000000200195
 51
90.0
  0
LINE
  5
D6A2
  8
01_表面形状
 62
     3
 10
922.9432857982893665
 20
42.9216784934622879
 30
0.0
 11
912.9329228272058572
 21
42.9216784934622879
 31
0.0
  0
ARC
  5
D6A3
  8
01_表面形状
 62
     3
 10
887.9432857982892529
 20
30.9216784934610587
 30
0.0
 40
55.0
 50
67.6404703487026637
 51
90.0
  0
LINE
  5
D6A4
  8
04_中心線
 62
   110
 10
847.9432857982893665
 20
61.9216784934611724
 30
0.0
 11
927.9432857982894802
 21
61.9216784934611226
 31
0.0
  0
LINE
  5
D6A5
  8
04_中心線
 62
   110
 10
887.9432857982892529
 20
90.921678493461016
 30
0.0
 11
887.9432857982892529
 21
32.9216784934612932
 31
0.0
  0
ARC
  5
D6A6
  8
01_表面形状
 62
     3
 10
911.7400452878659962
 20
82.4216784934611439
 30
0.0
 40
2.0
 50
232.5824557966124928
 51
270.0
  0
ARC
  5
D6A7
  8
01_表面形状
 62
     3
 10
906.0891879901517996
 20
75.0353524919318033
 30
0.0
 40
7.299999999999998
 50
52.582455796612507
 51
67.6404703487026637
  0
ARC
  5
D6A8
  8
01_表面形状
 62
     3
 10
912.0668974234222333
 20
81.4216784934611439
 30
0.0
 40
1.0
 50
270.0
 51
329.9999999999799911
  0
LINE
  5
D6A9
  8
01_表面形状
 62
     3
 10
911.7400452878659962
 20
80.4216784934611439
 30
0.0
 11
912.0668974234222333
 21
80.4216784934611439
 31
0.0
  0
LINE
  5
D6AA
  8
01_表面形状
 62
     3
 10
922.9432857982893665
 20
80.9216784934600355
 30
0.0
 11
912.9329228272058572
 21
80.9216784934600355
 31
0.0
  0
LINE
  5
D6AB
  8
01_表面形状
 62
     3
 10
998.8722970883316066
 20
1.9772510894071329
 30
0.0
 11
998.8722970883324024
 21
-6.0227489105912753
 31
0.0
  0
LINE
  5
D6AC
  8
04_中心線
 62
   110
 10
977.8722970883319476
 20
15.0039276264703805
 30
0.0
 11
977.8722970883319476
 21
-63.5227489105928811
 31
0.0
  0
LINE
  5
D6AD
  8
04_中心線
 62
   110
 10
948.8722970883320613
 20
-34.5227489105928811
 30
0.0
 11
1006.8722970883319476
 21
-34.5227489105932079
 31
0.0
  0
LINE
  5
D6B0
  8
01_表面形状
 62
     3
 10
998.8722970883320613
 20
-6.0227489105928651
 30
0.0
 11
1000.7240135620689898
 21
-27.1879650552961891
 31
0.0
  0
ARC
  5
D6B1
  8
01_表面形状
 62
     3
 10
911.7400452878895294
 20
-55.0227489105429584
 30
0.0
 40
2.0
 50
90.0
 51
127.417544203403196
  0
ARC
  5
D6B2
  8
01_表面形状
 62
     3
 10
912.0668974233894915
 20
-54.0227489105429726
 30
0.0
 40
1.0
 50
29.999999999992351
 51
90.0
  0
LINE
  5
D6B3
  8
01_表面形状
 62
     3
 10
852.9432857982894802
 20
-54.5864217112429913
 30
0.0
 11
852.9432857982894802
 21
-46.3680414536429026
 31
0.0
  0
LINE
  5
D6B4
  8
04_中心線
 62
   110
 10
887.9432857982892529
 20
14.4095183573656396
 30
0.0
 11
887.9432857982892529
 21
-63.5227489105429584
 31
0.0
  0
ARC
  5
D6B5
  8
01_表面形状
 62
     3
 10
871.5509095214896433
 20
-59.2227489105429967
 30
0.0
 40
6.0
 50
54.1657778772054428
 51
90.0
  0
LINE
  5
D6B6
  8
01_表面形状
 62
     3
 10
852.9432857982894802
 20
-54.6953986413429618
 30
0.0
 11
852.9432857982894802
 21
-54.5864217112429913
 31
0.0
  0
LINE
  5
D6B7
  8
01_表面形状
 62
     3
 10
863.7042041192895567
 20
-53.2227489105429967
 30
0.0
 11
871.5509095214896433
 21
-53.2227489105429967
 31
0.0
  0
ARC
  5
D6B8
  8
01_表面形状
 62
     3
 10
863.7042041192895567
 20
-54.2227489105429967
 30
0.0
 40
1.0
 50
90.0
 51
150.0000000000075886
  0
LINE
  5
D6B9
  8
01_表面形状
 62
     3
 10
861.9432857982894802
 20
-55.2727489105429726
 30
0.0
 11
862.8381787154894482
 21
-53.7227489105429967
 31
0.0
  0
LINE
  5
D6BA
  8
01_表面形状
 62
     3
 10
861.9432857982894802
 20
-55.1474384118430123
 30
0.0
 11
861.9432857982894802
 21
-55.2727489105429726
 31
0.0
  0
ARC
  5
D6BB
  8
01_表面形状
 62
     3
 10
887.9432857982892529
 20
-3.522748910542957
 30
0.0
 40
55.0
 50
270.0
 51
292.3595296512972936
  0
ARC
  5
D6BC
  8
01_表面形状
 62
     3
 10
887.9432857982892529
 20
-36.5227489105429584
 30
0.0
 40
22.0
 50
234.1657778772053859
 51
270.0
  0
ARC
  5
D6BD
  8
01_表面形状
 62
     3
 10
906.0891879900892718
 20
-47.6364229090429205
 30
0.0
 40
7.299999999999998
 50
292.3595296512972936
 51
307.4175442034032812
  0
LINE
  5
D6BE
  8
01_表面形状
 62
     3
 10
912.9329228271894863
 20
-53.5227489105429584
 30
0.0
 11
913.9432857982893665
 21
-55.2727489105429726
 31
0.0
  0
LINE
  5
D6BF
  8
01_表面形状
 62
     3
 10
913.9432857982893665
 20
-55.1474384118430123
 30
0.0
 11
913.9432857982893665
 21
-55.2727489105429726
 31
0.0
  0
LINE
  5
D6C0
  8
01_表面形状
 62
     3
 10
911.7400452878895294
 20
-53.0227489105429513
 30
0.0
 11
912.0668974233894915
 21
-53.0227489105429513
 31
0.0
  0
LINE
  5
D6C1
  8
01_表面形状
 62
     3
 10
922.9432857982893665
 20
-54.5864217112429913
 30
0.0
 11
922.9432857982893665
 21
-54.6953986413429618
 31
0.0
  0
LINE
  5
D6C2
  8
04_中心線
 62
   110
 10
847.9432857982893665
 20
-34.5227489105929308
 30
0.0
 11
927.9432857982894802
 21
-34.5227489105928811
 31
0.0
  0
LINE
  5
D6C3
  8
01_表面形状
 62
     3
 10
866.9432857982894802
 20
-6.0227489105429557
 30
0.0
 11
866.2412846430893296
 21
-13.9983324457429905
 31
0.0
  0
LINE
  5
D6C4
  8
01_表面形状
 62
     3
 10
909.6521368771253719
 20
-14.1249538170254407
 30
0.0
 11
908.9432857982894802
 21
-6.0227489105429557
 31
0.0
  0
POLYLINE
  5
D6C5
  8
01_表面形状
 62
     3
 66
     1
 10
0.0
 20
0.0
 30
0.0
 70
   128
  0
VERTEX
  5
DADF
  8
01_表面形状
 62
     3
 10
877.3750495470893611
 20
-7.5103447772927154
 30
0.0
  0
VERTEX
  5
DAE0
  8
01_表面形状
 62
     3
 10
878.1866657823894684
 20
-8.0460434074929861
 30
0.0
  0
VERTEX
  5
DAE1
  8
01_表面形状
 62
     3
 10
878.8928888269892923
 20
-8.6708855172929304
 30
0.0
  0
VERTEX
  5
DAE2
  8
01_表面形状
 62
     3
 10
879.510716461989432
 20
-9.4147899471929275
 30
0.0
  0
VERTEX
  5
DAE3
  8
01_表面形状
 62
     3
 10
879.998637512189589
 20
-10.2335525683929198
 30
0.0
  0
VERTEX
  5
DAE4
  8
01_表面形状
 62
     3
 10
880.3618595738893191
 20
-11.1304443682929293
 30
0.0
  0
VERTEX
  5
DAE5
  8
01_表面形状
 62
     3
 10
880.5801354708894451
 20
-12.0612347150929207
 30
0.0
  0
VERTEX
  5
DAE6
  8
01_表面形状
 62
     3
 10
880.65597788628952
 20
-13.0218680132929592
 30
0.0
  0
VERTEX
  5
DAE7
  8
01_表面形状
 62
     3
 10
880.5843918911892843
 20
-13.9761736487929191
 30
0.0
  0
VERTEX
  5
DAE8
  8
01_表面形状
 62
     3
 10
880.3693745364894312
 20
-14.9106604273929104
 30
0.0
  0
VERTEX
  5
DAE9
  8
01_表面形状
 62
     3
 10
880.0014018036895322
 20
-15.8252037764929998
 30
0.0
  0
VERTEX
  5
DAEA
  8
01_表面形状
 62
     3
 10
879.499037422489323
 20
-16.6658666646929703
 30
0.0
  0
VERTEX
  5
DAEB
  8
01_表面形状
 62
     3
 10
878.8091286565894507
 20
-17.4766717698929313
 30
0.0
  0
VERTEX
  5
DAEC
  8
01_表面形状
 62
     3
 10
878.0114484072894356
 20
-18.1445184233930092
 30
0.0
  0
VERTEX
  5
DAED
  8
01_表面形状
 62
     3
 10
877.1536232901892163
 20
-18.6467255652929396
 30
0.0
  0
VERTEX
  5
DAEE
  8
01_表面形状
 62
     3
 10
876.2629285167895432
 20
-18.9937520138929301
 30
0.0
  0
VERTEX
  5
DAEF
  8
01_表面形状
 62
     3
 10
875.1919322615894998
 20
-19.2137914421930098
 30
0.0
  0
VERTEX
  5
DAF0
  8
01_表面形状
 62
     3
 10
874.1564836617894798
 20
-19.2442870718930088
 30
0.0
  0
VERTEX
  5
DAF1
  8
01_表面形状
 62
     3
 10
873.1358066456892857
 20
-19.1012827322930114
 30
0.0
  0
VERTEX
  5
DAF2
  8
01_表面形状
 62
     3
 10
872.1927226432893576
 20
-18.8070400397930086
 30
0.0
  0
VERTEX
  5
DAF3
  8
01_表面形状
 62
     3
 10
871.3412112108893552
 20
-18.3879609129929484
 30
0.0
  0
VERTEX
  5
DAF4
  8
01_表面形状
 62
     3
 10
870.2454309330894375
 20
-17.571087775092991
 30
0.0
  0
VERTEX
  5
DAF5
  8
01_表面形状
 62
     3
 10
869.352399918289052
 20
-16.5395448711929909
 30
0.0
  0
VERTEX
  5
DAF6
  8
01_表面形状
 62
     3
 10
868.8564077470894063
 20
-15.6956766273930004
 30
0.0
  0
VERTEX
  5
DAF7
  8
01_表面形状
 62
     3
 10
868.4774532949893455
 20
-14.7123457330929703
 30
0.0
  0
VERTEX
  5
DAF8
  8
01_表面形状
 62
     3
 10
868.3446609314895568
 20
-14.1684165214929596
 30
0.0
  0
VERTEX
  5
DAF9
  8
01_表面形状
 62
     3
 10
868.2578934517893003
 20
-13.5716164204929708
 30
0.0
  0
VERTEX
  5
DAFA
  8
01_表面形状
 62
     3
 10
868.2336046347892307
 20
-12.8143997643929595
 30
0.0
  0
VERTEX
  5
DAFB
  8
01_表面形状
 62
     3
 10
868.3279996842895798
 20
-11.9244249715929698
 30
0.0
  0
VERTEX
  5
DAFC
  8
01_表面形状
 62
     3
 10
868.5344054390893689
 20
-11.1147817400929796
 30
0.0
  0
VERTEX
  5
DAFD
  8
01_表面形状
 62
     3
 10
868.8727775545894474
 20
-10.2927378369929201
 30
0.0
  0
VERTEX
  5
DAFE
  8
01_表面形状
 62
     3
 10
869.2823689856893452
 20
-9.5920804409929303
 30
0.0
  0
VERTEX
  5
DAFF
  8
01_表面形状
 62
     3
 10
869.9534549542892137
 20
-8.7549364934929752
 30
0.0
  0
VERTEX
  5
DB00
  8
01_表面形状
 62
     3
 10
870.7267342203895168
 20
-8.0678323644930003
 30
0.0
  0
VERTEX
  5
DB01
  8
01_表面形状
 62
     3
 10
871.1576884763800308
 20
-7.7963720135705614
 30
0.0
  0
SEQEND
  5
DB02
  8
01_表面形状
 62
     3
  0
LINE
  5
D6C6
  8
04_中心線
 62
   110
 10
874.4432857982894802
 20
-4.001885973950805
 30
0.0
 11
874.4432857982894802
 21
-22.2371411009381497
 31
0.0
  0
LINE
  5
D6C7
  8
04_中心線
 62
   110
 10
865.2387447838048047
 20
-13.0227489105928598
 30
0.0
 11
883.6643405487261589
 21
-13.0227489105930907
 31
0.0
  0
LINE
  5
D6C8
  8
01_表面形状
 62
     3
 10
852.9432857982894802
 20
-42.7411291681428978
 30
0.0
 11
852.9432857982894802
 21
-26.3043686530429284
 31
0.0
  0
LINE
  5
D6C9
  8
01_表面形状
 62
     3
 10
852.9432857982894802
 20
-46.3680414536429026
 30
0.0
 11
852.9432857982894802
 21
-42.7411291681428978
 31
0.0
  0
LINE
  5
D6CA
  8
01_表面形状
 62
     3
 10
861.9432857982894802
 20
-42.8631625693429612
 30
0.0
 11
861.9432857982894802
 21
-46.8070247530428887
 31
0.0
  0
LINE
  5
D6CB
  8
01_表面形状
 62
     3
 10
852.9432857982894802
 20
-14.4590761098429201
 30
0.0
 11
852.9432857982894802
 21
-14.3500991797429496
 31
0.0
  0
LINE
  5
D6CC
  8
01_表面形状
 62
     3
 10
861.9432857982894802
 20
-13.7727489105429601
 30
0.0
 11
861.9432857982894802
 21
-13.8980594092429008
 31
0.0
  0
LINE
  5
D6CD
  8
01_表面形状
 62
     3
 10
852.9432857982894802
 20
-26.3043686530429284
 30
0.0
 11
852.9432857982894802
 21
-22.6774563674429999
 31
0.0
  0
LINE
  5
D6CE
  8
01_表面形状
 62
     3
 10
861.9432857982894802
 20
-22.2384730680430209
 30
0.0
 11
861.9432857982894802
 21
-26.1823352517429591
 31
0.0
  0
ARC
  5
D6CF
  8
01_表面形状
 62
     3
 10
863.7042041192895567
 20
-14.8227489105429093
 30
0.0
 40
1.0
 50
209.9999999999924114
 51
270.0
  0
LINE
  5
D6D0
  8
01_表面形状
 62
     3
 10
864.2552539936892799
 20
-15.8227489105429093
 30
0.0
 11
863.7042041192895567
 21
-15.8227489105429093
 31
0.0
  0
LINE
  5
D6D1
  8
01_表面形状
 62
     3
 10
852.9432857982894802
 20
-22.6774563674429999
 30
0.0
 11
852.9432857982894802
 21
-14.4590761098429201
 31
0.0
  0
POLYLINE
  5
D6D2
  8
01_表面形状
 62
     3
 66
     1
 10
0.0
 20
0.0
 30
0.0
 70
   128
  0
VERTEX
  5
DB03
  8
01_表面形状
 62
     3
 10
866.2412846430893296
 20
-13.9983324457429905
 30
0.0
  0
VERTEX
  5
DB04
  8
01_表面形状
 62
     3
 10
866.1972296994894123
 20
-14.2927402945429893
 30
0.0
  0
VERTEX
  5
DB05
  8
01_表面形状
 62
     3
 10
866.0695423281895273
 20
-14.6600277439428908
 30
0.0
  0
VERTEX
  5
DB06
  8
01_表面形状
 62
     3
 10
865.8647943931894133
 20
-15.0071833934430003
 30
0.0
  0
VERTEX
  5
DB07
  8
01_表面形状
 62
     3
 10
865.5895361717892911
 20
-15.31080405464294
 30
0.0
  0
VERTEX
  5
DB08
  8
01_表面形状
 62
     3
 10
865.2283289342896069
 20
-15.5689449355429304
 30
0.0
  0
VERTEX
  5
DB09
  8
01_表面形状
 62
     3
 10
864.8561591010893608
 20
-15.7297074078429393
 30
0.0
  0
VERTEX
  5
DB0A
  8
01_表面形状
 62
     3
 10
864.4907783617893529
 20
-15.8085939500429902
 30
0.0
  0
VERTEX
  5
DB0B
  8
01_表面形状
 62
     3
 10
864.2552539936892799
 20
-15.8227489105429093
 30
0.0
  0
SEQEND
  5
DB0C
  8
01_表面形状
 62
     3
  0
LINE
  5
D6D3
  8
01_表面形状
 62
     3
 10
862.8381787154894482
 20
-15.3227489105429093
 30
0.0
 11
861.9432857982894802
 21
-13.7727489105429601
 31
0.0
  0
LINE
  5
D6FE
  8
01_表面形状
 62
     3
 10
913.9432857982893665
 20
-42.8631625693429612
 30
0.0
 11
913.9432857982893665
 21
-46.8070247530428887
 31
0.0
  0
LINE
  5
D701
  8
01_表面形状
 62
     3
 10
913.9432857982893665
 20
-13.7727489105429601
 30
0.0
 11
913.9432857982893665
 21
-13.8980594092429008
 31
0.0
  0
ARC
  5
D702
  8
01_表面形状
 62
     3
 10
911.7438850912506041
 20
-13.9994393878233403
 30
0.0
 40
2.0233131662739852
 50
230.1486900601680077
 51
269.8912651474441873
  0
LINE
  5
D703
  8
01_表面形状
 62
     3
 10
913.9432857982893665
 20
-22.2384730680430209
 30
0.0
 11
913.9432857982893665
 21
-26.1823352517429591
 31
0.0
  0
ARC
  5
D704
  8
01_表面形状
 62
     3
 10
912.0668974233894915
 20
-15.0227489105429601
 30
0.0
 40
1.0
 50
270.0
 51
330.0000000000076739
  0
LINE
  5
D705
  8
01_表面形状
 62
     3
 10
912.0668974233894915
 20
-16.0227489105429584
 30
0.0
 11
911.7400452878895294
 21
-16.0227489105429584
 31
0.0
  0
ARC
  5
D706
  8
01_表面形状
 62
     3
 10
911.6445262732892161
 20
-13.9506423315429799
 30
0.0
 40
2.0
 50
184.9991457450998098
 51
233.2311939717029929
  0
LINE
  5
D707
  8
01_表面形状
 62
     3
 10
913.9432857982893665
 20
-13.7727489105429601
 30
0.0
 11
912.9329228271894863
 21
-15.5227489105429601
 31
0.0
  0
LINE
  5
D708
  8
01_表面形状
 62
     3
 10
866.9432857982894802
 20
1.9772510894570401
 30
0.0
 11
908.9432857982894802
 21
1.9772510894570401
 31
0.0
  0
LINE
  5
D709
  8
01_表面形状
 62
     3
 10
866.9432857982894802
 20
-0.5227489105429584
 30
0.0
 11
908.9432857982894802
 21
-0.5227489105429584
 31
0.0
  0
LINE
  5
D70A
  8
01_表面形状
 62
     3
 10
873.4557759950893114
 20
-6.8805602065926621
 30
0.0
 11
872.1044223835891671
 21
-7.2743914940926677
 31
0.0
  0
LINE
  5
D70B
  8
01_表面形状
 62
     3
 10
866.9432857982894802
 20
1.9772510894570401
 30
0.0
 11
866.9432857982894802
 21
-6.0227489105429557
 31
0.0
  0
LINE
  5
D70C
  8
01_表面形状
 62
     3
 10
872.1044223835891671
 20
-7.2743914940926677
 30
0.0
 11
871.1576884763800308
 21
-7.7963720135705614
 31
0.0
  0
LINE
  5
D70D
  8
01_表面形状
 62
     3
 10
874.5537054485893123
 20
-6.7924488555927081
 30
0.0
 11
873.4557759950893114
 21
-6.8805602065926621
 31
0.0
  0
LINE
  5
D70E
  8
01_表面形状
 62
     3
 10
875.7143197331894271
 20
-6.9138135563926824
 30
0.0
 11
874.5537054485893123
 21
-6.7924488555927081
 31
0.0
  0
LINE
  5
D70F
  8
01_表面形状
 62
     3
 10
877.3750495470893611
 20
-7.5103447772927154
 30
0.0
 11
876.5495070827894324
 21
-7.1462466985926474
 31
0.0
  0
LINE
  5
D710
  8
01_表面形状
 62
     3
 10
876.5495070827894324
 20
-7.1462466985926474
 30
0.0
 11
875.7143197331894271
 21
-6.9138135563926824
 31
0.0
  0
LINE
  5
D711
  8
01_表面形状
 62
     3
 10
908.9432857982894802
 20
-6.0227489105429557
 30
0.0
 11
908.9432857982894802
 21
1.9772510894570401
 31
0.0
  0
LINE
  5
D712
  8
01_表面形状
 62
     3
 10
922.9432857982893665
 20
-14.3500991797429496
 30
0.0
 11
922.9432857982893665
 21
-14.4590761098429201
 31
0.0
  0
LINE
  5
D713
  8
01_表面形状
 62
     3
 10
922.9432857982893665
 20
-22.6774563674429999
 30
0.0
 11
922.9432857982893665
 21
-26.3043686530429284
 31
0.0
  0
LINE
  5
D714
  8
01_表面形状
 62
     3
 10
872.4432857982894802
 20
8.2783219170178466
 30
0.0
 11
872.4432857982894802
 21
1.9772510894570401
 31
0.0
  0
LINE
  5
D715
  8
01_表面形状
 62
     3
 10
903.4432857982893665
 20
1.9772510894570401
 30
0.0
 11
903.4432857982893665
 21
8.2783219170178466
 31
0.0
  0
POLYLINE
  5
D716
  8
01_表面形状
 62
     3
 66
     1
 10
0.0
 20
0.0
 30
0.0
  0
VERTEX
  5
DB0D
  8
01_表面形状
 62
     3
 10
901.3666795569479291
 20
9.4772510894570381
 30
0.0
  0
VERTEX
  5
DB0E
  8
01_表面形状
 62
     3
 10
874.5198920396304629
 20
9.4772510894570381
 30
0.0
  0
SEQEND
  5
DB0F
  8
01_表面形状
 62
     3
  0
LINE
  5
D717
  8
01_表面形状
 62
     3
 10
880.1932857982893665
 20
8.2783219170178466
 30
0.0
 11
880.1932857982893665
 21
1.9772510894570401
 31
0.0
  0
LINE
  5
D718
  8
01_表面形状
 62
     3
 10
895.6932857982894802
 20
8.2783219170178466
 30
0.0
 11
895.6932857982894802
 21
1.9772510894570401
 31
0.0
  0
LINE
  5
D719
  8
01_表面形状
 62
     3
 10
901.3666795569479291
 20
9.4772510894570381
 30
0.0
 11
903.4432857982893665
 21
8.2783219170178466
 31
0.0
  0
LINE
  5
D71A
  8
01_表面形状
 62
     3
 10
874.5198920396304629
 20
9.4772510894570381
 30
0.0
 11
872.4432857982894802
 21
8.2783219170178466
 31
0.0
  0
ARC
  5
D71B
  8
01_表面形状
 62
     3
 10
899.5682857982894802
 20
2.6156880635728892
 30
0.0
 40
6.8615630258842177
 50
55.6157525319617392
 51
124.3842474680463965
  0
ARC
  5
D71C
  8
01_表面形状
 62
     3
 10
887.9432857982892529
 20
-16.1706072554202116
 30
0.0
 40
25.6478583448772497
 50
72.412046226009025
 51
107.587953773990904
  0
ARC
  5
D71D
  8
01_表面形状
 62
     3
 10
876.3182857982894802
 20
2.6156880635728892
 30
0.0
 40
6.8615630258842177
 50
55.6157525319617392
 51
124.3842474680381969
  0
LINE
  5
D71E
  8
01_表面形状
 62
     3
 10
998.3722970883319476
 20
1.9772510894071329
 30
0.0
 11
957.3722970883319476
 21
1.9772510894071329
 31
0.0
  0
POLYLINE
  5
D71F
  8
01_表面形状
 62
     3
 66
     1
 10
0.0
 20
0.0
 30
0.0
  0
VERTEX
  5
DB10
  8
01_表面形状
 62
     3
 10
991.2956908469906239
 20
9.4772510894071331
 30
0.0
  0
VERTEX
  5
DB11
  8
01_表面形状
 62
     3
 10
964.4489033296731577
 20
9.4772510894071331
 30
0.0
  0
SEQEND
  5
DB12
  8
01_表面形状
 62
     3
  0
CIRCLE
  5
D720
  8
01_表面形状
 62
     3
 10
887.9432857982892529
 20
61.9216784934611368
 30
0.0
 40
21.5
  0
POLYLINE
  5
D721
  8
01_表面形状
 62
     3
 66
     1
 10
0.0
 20
0.0
 30
0.0
 70
     1
  0
VERTEX
  5
DB13
  8
01_表面形状
 62
     3
 10
872.4432857982894802
 20
61.9216784934611368
 30
0.0
  0
VERTEX
  5
DB14
  8
01_表面形状
 62
     3
 10
880.1932857982893665
 20
48.4982847348022901
 30
0.0
  0
VERTEX
  5
DB15
  8
01_表面形状
 62
     3
 10
895.6932857982894802
 20
48.4982847348022901
 30
0.0
  0
VERTEX
  5
DB16
  8
01_表面形状
 62
     3
 10
903.4432857982893665
 20
61.9216784934610871
 30
0.0
  0
VERTEX
  5
DB17
  8
01_表面形状
 62
     3
 10
895.6932857982894802
 20
75.3450722521199481
 30
0.0
  0
VERTEX
  5
DB18
  8
01_表面形状
 62
     3
 10
880.1932857982893665
 20
75.3450722521199765
 30
0.0
  0
SEQEND
  5
DB19
  8
01_表面形状
 62
     3
  0
CIRCLE
  5
D722
  8
01_表面形状
 62
     3
 10
887.9432857982892529
 20
61.9216784934611368
 30
0.0
 40
13.4233937586588201
  0
LINE
  5
D723
  8
04_中心線
 62
   110
 10
874.4432857982894802
 20
47.9760479801635
 30
0.0
 11
874.4432857982895939
 21
35.2512897182762686
 31
0.0
  0
ARC
  5
D724
  8
01_表面形状
 62
     3
 10
878.7736614712621304
 20
36.8294336556900674
 30
0.0
 40
2.555270833107417
 50
55.6005266118987009
 51
124.3994733880958989
  0
ARC
  5
D725
  8
01_表面形状
 62
     3
 10
878.7736614712632672
 20
38.7669493265687777
 30
0.0
 40
2.555270833107417
 50
235.6005266118986015
 51
304.3994733880959984
  0
LINE
  5
D726
  8
01_表面形状
 62
     3
 10
879.4432857982893665
 20
36.2116784934613491
 30
0.0
 11
869.4432857982893665
 21
36.2116784934612213
 31
0.0
  0
LINE
  5
D727
  8
01_表面形状
 62
     3
 10
879.4432857982893665
 20
36.2116784934612781
 30
0.0
 11
869.4432857982893665
 21
36.2116784934611715
 31
0.0
  0
ARC
  5
D728
  8
01_表面形状
 62
     3
 10
870.1129101253142153
 20
36.8294336556899395
 30
0.0
 40
2.555270833107417
 50
55.6005266118987009
 51
124.3994733880958989
  0
ARC
  5
D729
  8
01_表面形状
 62
     3
 10
874.4432857982880023
 20
29.8371376802660215
 30
0.0
 40
9.54756680853143
 50
72.4009153227635807
 51
107.5990846772364051
  0
LINE
  5
D72C
  8
01_表面形状
 62
     3
 10
869.4432857982893665
 20
36.2116784934612213
 30
0.0
 11
868.6692857982893656
 21
36.6585476018137513
 31
0.0
  0
ARC
  5
D72D
  8
01_表面形状
 62
     3
 10
870.1129101253153522
 20
38.7669493265686569
 30
0.0
 40
2.555270833107417
 50
235.6005266118986015
 51
304.3994733880959984
  0
ARC
  5
D72E
  8
01_表面形状
 62
     3
 10
874.4432857982891392
 20
45.7592453019926424
 30
0.0
 40
9.54756680853143
 50
252.4009153227634101
 51
287.5990846772364193
  0
LINE
  5
D72F
  8
01_表面形状
 62
     3
 10
879.4432857982893665
 20
36.2116784934613491
 30
0.0
 11
880.2172857982893674
 21
36.6585476018143197
 31
0.0
  0
LINE
  5
D730
  8
01_表面形状
 62
     3
 10
880.2167884901856496
 20
36.6582071806944612
 30
0.0
 11
880.2167884901856496
 21
38.9381758015633608
 31
0.0
  0
LINE
  5
D731
  8
01_表面形状
 62
     3
 10
877.3300371442376218
 20
36.6585476018140923
 30
0.0
 11
877.3300371442373944
 21
38.9378353804455415
 31
0.0
  0
LINE
  5
D732
  8
01_表面形状
 62
     3
 10
871.5565344523414524
 20
36.6585476018140284
 30
0.0
 11
871.5565344523414524
 21
38.9378353804438788
 31
0.0
  0
LINE
  5
D733
  8
01_表面形状
 62
     3
 10
868.6697831063930835
 20
36.6582071806943475
 30
0.0
 11
868.6697831063930835
 21
38.9381758015648813
 31
0.0
  0
LINE
  5
D734
  8
01_表面形状
 62
     3
 10
880.2167884901906518
 20
38.9381758015599431
 30
0.0
 11
878.7332857982892165
 21
40.4216784934611724
 31
0.0
  0
LINE
  5
D735
  8
01_表面形状
 62
     3
 10
868.6697831063930835
 20
38.9381758015648316
 30
0.0
 11
870.1532857982891755
 21
40.4216784934611724
 31
0.0
  0
LINE
  5
D736
  8
01_表面形状
 62
     3
 10
952.1622970883321386
 20
-8.0227489105932062
 30
0.0
 11
952.1622970883322523
 21
-18.0227489105929806
 31
0.0
  0
LINE
  5
D737
  8
01_表面形状
 62
     3
 10
952.1622970883322523
 20
-18.0227489105929806
 30
0.0
 11
952.1622970883321386
 21
-8.0227489105929806
 31
0.0
  0
LINE
  5
D738
  8
01_表面形状
 62
     3
 10
952.1622970883322523
 20
-18.0227489105927496
 30
0.0
 11
955.6622970883322523
 21
-18.0227489105927496
 31
0.0
  0
LINE
  5
D739
  8
01_表面形状
 62
     3
 10
952.1622970883321386
 20
-8.0227489105927532
 30
0.0
 11
955.6622970883321386
 21
-8.0227489105927532
 31
0.0
  0
LINE
  5
D73A
  8
01_表面形状
 62
     3
 10
956.3727040611119037
 20
-7.9972311939502836
 30
0.0
 11
956.3727040611119037
 21
-11.7331233418135792
 31
0.0
  0
ARC
  5
D73B
  8
01_表面形状
 62
     3
 10
956.8727040611120174
 20
-7.9972311939502836
 30
0.0
 40
0.5
 50
105.1809282252453954
 51
180.0
  0
LINE
  5
D73C
  8
01_表面形状
 62
     3
 10
952.1622970883321386
 20
-8.0227489105932062
 30
0.0
 11
952.1622970883322523
 21
-18.0227489105929806
 31
0.0
  0
LINE
  5
D73D
  8
01_表面形状
 62
     3
 10
952.1622970883322523
 20
-18.0227489105929806
 30
0.0
 11
952.1622970883321386
 21
-8.0227489105929806
 31
0.0
  0
LINE
  5
D73E
  8
01_表面形状
 62
     3
 10
952.1622970883322523
 20
-18.0227489105927496
 30
0.0
 11
955.6622970883322523
 21
-18.0227489105927496
 31
0.0
  0
LINE
  5
D73F
  8
01_表面形状
 62
     3
 10
952.1622970883321386
 20
-8.0227489105927532
 30
0.0
 11
955.6622970883321386
 21
-8.0227489105927532
 31
0.0
  0
ARC
  5
D740
  8
01_表面形状
 62
     3
 10
959.3749152107184273
 20
-15.5227489105928598
 30
0.0
 40
7.2128607168649781
 50
159.7203133156151011
 51
200.2796866843848989
  0
ARC
  5
D741
  8
01_表面形状
 62
     3
 10
959.3776703565713433
 20
-10.5227489105928598
 30
0.0
 40
7.2154451395875938
 50
159.7278962371499915
 51
200.2721037628508043
  0
ARC
  5
D742
  8
01_表面形状
 62
     3
 10
948.4473558490476535
 20
-15.5227489105929806
 30
0.0
 40
7.2149898748222761
 50
339.7265608717349892
 51
20.2734391282650108
  0
ARC
  5
D743
  8
01_表面形状
 62
     3
 10
948.44611275452462
 20
-10.5227489105929806
 30
0.0
 40
7.21615597207773
 50
339.729980864259403
 51
20.2700191357406112
  0
LINE
  5
D744
  8
01_表面形状
 62
     3
 10
955.6622970883322523
 20
-18.0227489105927496
 30
0.0
 11
955.8377864562861532
 21
-17.8472595426387599
 31
0.0
  0
LINE
  5
D745
  8
01_表面形状
 62
     3
 10
955.6622970883321386
 20
-8.0227489105927532
 30
0.0
 11
956.3727040611119037
 21
-8.733155883372687
 31
0.0
  0
LINE
  5
D746
  8
04_中心線
 62
   110
 10
949.539290294710554
 20
-13.0227489105927194
 30
0.0
 11
962.2640485565982544
 21
-13.0227489105927194
 31
0.0
  0
POLYLINE
  5
D747
  8
01_表面形状
 62
     3
 66
     1
 10
0.0
 20
0.0
 30
0.0
 70
     1
  0
VERTEX
  5
DB1A
  8
01_表面形状
 62
     3
 10
871.5647913203174539
 20
-18.0227489105929806
 30
0.0
  0
VERTEX
  5
DB1B
  8
01_表面形状
 62
     3
 10
877.3382940122138507
 20
-18.0227489105929806
 30
0.0
  0
VERTEX
  5
DB1C
  8
01_表面形状
 62
     3
 10
880.2250453581618785
 20
-13.0227489105929806
 30
0.0
  0
VERTEX
  5
DB1D
  8
01_表面形状
 62
     3
 10
877.3382940122138507
 20
-8.0227489105929521
 30
0.0
  0
VERTEX
  5
DB1E
  8
01_表面形状
 62
     3
 10
871.5647913203174539
 20
-8.0227489105929237
 30
0.0
  0
VERTEX
  5
DB1F
  8
01_表面形状
 62
     3
 10
868.6780399743691987
 20
-13.0227489105929504
 30
0.0
  0
SEQEND
  5
DB20
  8
01_表面形状
 62
     3
  0
CIRCLE
  5
D748
  8
01_表面形状
 62
     3
 10
874.4515426662657092
 20
-13.0227489105929806
 30
0.0
 40
4.9999999999999867
  0
LINE
  5
D749
  8
01_表面形状
 62
     3
 10
991.2956908469909649
 20
1.9772510894071029
 30
0.0
 11
991.2956908469909649
 21
9.4772510894071331
 31
0.0
  0
LINE
  5
D74A
  8
01_表面形状
 62
     3
 10
977.8722970883319476
 20
1.9772510894071029
 30
0.0
 11
977.8722970883319476
 21
8.2783219169682525
 31
0.0
  0
LINE
  5
D74B
  8
01_表面形状
 62
     3
 10
964.4489033296731577
 20
1.9772510894071029
 30
0.0
 11
964.4489033296731577
 21
9.4772510894071331
 31
0.0
  0
ARC
  5
D74C
  8
01_表面形状
 62
     3
 10
971.1606002090027232
 20
-9.900428074240466
 30
0.0
 40
19.3781791260910587
 50
69.73557000217221
 51
110.2644299978277047
  0
ARC
  5
D74D
  8
01_表面形状
 62
     3
 10
984.5839939676617405
 20
-9.9070602929054701
 30
0.0
 40
19.3844009739582006
 50
69.7423596688324068
 51
110.2576403311675932
  0
POLYLINE
  5
D74E
  8
01_表面形状
 62
     3
 66
     1
 10
0.0
 20
0.0
 30
0.0
 70
     1
  0
VERTEX
  5
DB21
  8
01_表面形状
 62
     3
 10
958.872297088332175
 20
-45.4924040251964215
 30
0.0
  0
VERTEX
  5
DB22
  8
01_表面形状
 62
     3
 10
977.8722970883324024
 20
-56.4620591397991376
 30
0.0
  0
VERTEX
  5
DB23
  8
01_表面形状
 62
     3
 10
996.8722970883322887
 20
-45.4924040251960875
 30
0.0
  0
VERTEX
  5
DB24
  8
01_表面形状
 62
     3
 10
996.8722970883319476
 20
-23.5530937959903213
 30
0.0
  0
VERTEX
  5
DB25
  8
01_表面形状
 62
     3
 10
977.8722970883319476
 20
-12.5834386813875696
 30
0.0
  0
VERTEX
  5
DB26
  8
01_表面形状
 62
     3
 10
958.872297088332175
 20
-23.553093795990609
 30
0.0
  0
SEQEND
  5
DB27
  8
01_表面形状
 62
     3
  0
CIRCLE
  5
D74F
  8
01_表面形状
 62
     3
 10
977.8722970883319476
 20
-34.5227489105930374
 30
0.0
 40
15.1455000000000002
  0
CIRCLE
  5
D750
  8
01_表面形状
 62
     3
 10
977.8722970883319476
 20
-34.5227489105930374
 30
0.0
 40
16.6244960000000006
  0
LINE
  5
D751
  8
01_表面形状
 62
     3
 10
852.9432857982894802
 20
-12.5834386813872303
 30
0.0
 11
861.9432857982895939
 21
-12.5834386813872108
 31
0.0
  0
LINE
  5
D752
  8
01_表面形状
 62
     3
 10
913.9432857982893665
 20
-12.5834386813872303
 30
0.0
 11
922.9432857982893665
 21
-12.5834386813872303
 31
0.0
  0
LINE
  5
D753
  8
01_表面形状
 62
     3
 10
852.9432857982894802
 20
-23.5530937959902609
 30
0.0
 11
861.9432857982894802
 21
-23.5530937959902609
 31
0.0
  0
LINE
  5
D754
  8
01_表面形状
 62
     3
 10
913.9432857982893665
 20
-23.5530937959902893
 30
0.0
 11
922.9432857982893665
 21
-23.5530937959902609
 31
0.0
  0
LINE
  5
D755
  8
01_表面形状
 62
     3
 10
852.9432857982894802
 20
-45.4924040251960733
 30
0.0
 11
861.9432857982894802
 21
-45.4924040251960733
 31
0.0
  0
LINE
  5
D756
  8
01_表面形状
 62
     3
 10
913.9432857982893665
 20
-45.4924040251960733
 30
0.0
 11
922.9432857982893665
 21
-45.4924040251960733
 31
0.0
  0
LINE
  5
D757
  8
01_表面形状
 62
     3
 10
852.9432857982894802
 20
-56.4620591397987965
 30
0.0
 11
861.9432857982894802
 21
-56.4620591397987823
 31
0.0
  0
LINE
  5
D758
  8
01_表面形状
 62
     3
 10
913.9432857982893665
 20
-56.4620591397987965
 30
0.0
 11
922.9432857982893665
 21
-56.4620591397987965
 31
0.0
  0
LINE
  5
D759
  8
01_表面形状
 62
     3
 10
922.9432857982893665
 20
-56.4620591397987965
 30
0.0
 11
922.9432857982893665
 21
-12.5834386813872303
 31
0.0
  0
LINE
  5
D75A
  8
01_表面形状
 62
     3
 10
913.9432857982893665
 20
-56.4620591397988107
 30
0.0
 11
913.9432857982893665
 21
-12.5834386813872303
 31
0.0
  0
LINE
  5
D75B
  8
01_表面形状
 62
     3
 10
861.9432857982894802
 20
-56.46205913979869
 30
0.0
 11
861.9432857982894802
 21
-12.5834386813871202
 31
0.0
  0
LINE
  5
D75C
  8
01_表面形状
 62
     3
 10
852.9432857982894802
 20
-56.4620591397987113
 30
0.0
 11
852.9432857982894802
 21
-12.5834386813871504
 31
0.0
  0
TEXT
  5
D75D
  8
12_文字
 62
   110
 10
852.4946060841940607
 20
-91.8549096361914508
 30
0.0
 40
4.1671809999999976
  1
        SWING CHECK VALVE 1
 41
0.9621690000000001
  7
MX_NOTE_STANDARD
 11
852.4946060841940607
 21
-89.7713191361914369
 31
0.0
 73
     2
  0
TEXT
  5
D75E
  8
12_文字
 62
   110
 10
852.4601000841942096
 20
-107.8549096361913939
 30
0.0
 40
4.1671809999999976
  1
TOA
 41
0.9124859999999999
  7
MX_NOTE_STANDARD
 11
852.4601000841942096
 21
-105.7713191361913943
 31
0.0
 73
     2
  0
TEXT
  5
D75F
  8
12_文字
 62
   110
 10
852.5840950841940185
 20
-99.8549096361914508
 30
0.0
 40
4.1671809999999976
  1
FIG   TS1
 41
1.091015999999998
  7
MX_NOTE_STANDARD
 11
852.5840950841940185
 21
-97.7713191361914511
 31
0.0
 73
     2
  0
TEXT
  5
D760
  8
12_文字
 62
   110
 10
852.4622410841940336
 20
-83.854909636191465
 30
0.0
 40
4.1671809999999976
  1
NAME  CLASS 125 CAST BRASS
 41
0.9155689999999999
  7
MX_NOTE_STANDARD
 11
852.4622410841940336
 21
-81.7713191361914511
 31
0.0
 73
     2
  0
LINE
  5
D761
  8
01_表面形状
 62
     3
 10
922.9432857982893665
 20
42.9216784934622382
 30
0.0
 11
922.9432857982893665
 21
80.9216784934599644
 31
0.0
  0
LINE
  5
D762
  8
01_表面形状
 62
     3
 10
912.932922827206653
 20
42.9216784934614921
 30
0.0
 11
912.932922827206653
 21
80.9216784934591686
 31
0.0
  0
LINE
  5
D763
  8
01_表面形状
 62
     3
 10
862.8381787155342408
 20
42.9216784934622879
 30
0.0
 11
862.8381787155342408
 21
80.9216784934600355
 31
0.0
  0
LINE
  5
D764
  8
01_表面形状
 62
     3
 10
852.9432857982894802
 20
42.9216784934622879
 30
0.0
 11
852.9432857982894802
 21
80.9216784934600355
 31
0.0
  0
LINE
  5
D765
  8
01_表面形状
 62
     3
 10
862.8381787155342408
 20
61.9216784934611724
 30
0.0
 11
852.9432857982894802
 21
61.9216784934611724
 31
0.0
  0
LINE
  5
D766
  8
01_表面形状
 62
     3
 10
922.9432857982893665
 20
61.9216784934611226
 30
0.0
 11
912.932922827206653
 21
61.9216784934611226
 31
0.0
  0
LINE
  5
D767
  8
01_表面形状
 62
     3
 10
956.8722970883320613
 20
1.9772510894071329
 30
0.0
 11
998.8722970883320613
 21
1.9772510894071329
 31
0.0
  0
LINE
  5
D768
  8
01_表面形状
 62
     3
 10
956.8722970883320613
 20
-0.5227489105928669
 30
0.0
 11
998.8722970883320613
 21
-0.5227489105928669
 31
0.0
  0
LINE
  5
D9F8
  8
01_表面形状
 62
     3
 10
894.721058491943495
 20
-31.5227489245749304
 30
0.0
 11
894.7229009431113127
 21
-31.5227489245749304
 31
0.0
  0
LINE
  5
D9F9
  8
01_表面形状
 62
     3
 10
892.8691200342295815
 20
-36.7727489001062793
 30
0.0
 11
896.0014056961696269
 21
-36.7727489001065919
 31
0.0
  0
LINE
  5
D9FA
  8
01_表面形状
 62
     3
 10
894.0475009526918484
 20
-36.0227489036018724
 30
0.0
 11
895.2514056996649288
 21
-36.0227489036021211
 31
0.0
  0
LINE
  5
D9FB
  8
01_表面形状
 62
     3
 10
894.721058491943495
 20
-33.0227489175838684
 30
0.0
 11
894.7229009431109716
 21
-33.0227489175838684
 31
0.0
  0
LINE
  5
D9FC
  8
01_表面形状
 62
     3
 10
892.205787652009576
 20
-33.4527841221326767
 30
0.0
 11
891.3682185362001746
 21
-36.5786346171841785
 31
0.0
  0
LINE
  5
D9FD
  8
01_表面形状
 62
     3
 10
893.6546763846902195
 20
-33.8410126879770914
 30
0.0
 11
893.3230565863511856
 21
-35.0786346241751801
 31
0.0
  0
LINE
  5
D9FE
  8
01_表面形状
 62
     3
 10
892.8691200342295815
 20
-36.7727489001062793
 30
0.0
 11
892.8171072688810455
 21
-36.9668631830286927
 31
0.0
  0
LINE
  5
D9FF
  8
01_表面形状
 62
     3
 10
897.5014056891787959
 20
-34.1267489124386927
 30
0.0
 11
897.5014056891784548
 21
-36.7727489001065919
 31
0.0
  0
LINE
  5
DA00
  8
01_表面形状
 62
     3
 10
896.0014056961696269
 20
-34.1267489124386927
 30
0.0
 11
896.0014056961696269
 21
-35.2727489070975224
 31
0.0
  0
ARC
  5
DA01
  8
01_表面形状
 62
     3
 10
892.092662902540269
 20
-36.7727489001062793
 30
0.0
 40
0.7499999965044811
 50
165.0000000000025864
 51
344.999999999986585
  0
ARC
  5
DA02
  8
01_表面形状
 62
     3
 10
896.7514056926737567
 20
-36.7727489001065919
 30
0.0
 40
0.7499999965044811
 50
180.0
 51
0.0
  0
ARC
  5
DA03
  8
01_表面形状
 62
     3
 10
894.0475009526918484
 20
-35.2727489070973874
 30
0.0
 40
0.7499999965044811
 50
165.0000000000025864
 51
270.0
  0
ARC
  5
DA04
  8
01_表面形状
 62
     3
 10
895.2514056996649288
 20
-35.2727489070975935
 30
0.0
 40
0.7499999965044811
 50
270.0
 51
0.0000000000032569
  0
LINE
  5
DA05
  8
01_表面形状
 62
     3
 10
879.1351659039050901
 20
-33.0227489175835274
 30
0.0
 11
879.900725733961167
 21
-33.0227489175835274
 31
0.0
  0
LINE
  5
DA06
  8
01_表面形状
 62
     3
 10
882.6155277755749466
 20
-33.0227489175835274
 30
0.0
 11
883.7939086940373272
 21
-33.0227489175835274
 31
0.0
  0
ARC
  5
DA07
  8
01_表面形状
 62
     3
 10
882.6155277755749466
 20
-33.7727489140880834
 30
0.0
 40
0.7499999965044811
 50
90.0
 51
165.0
  0
ARC
  5
DA08
  8
01_表面形状
 62
     3
 10
879.900725733961167
 20
-33.4727489154863065
 30
0.0
 40
0.4499999979026886
 50
345.0
 51
90.0
  0
ARC
  5
DA09
  8
01_表面形状
 62
     3
 10
894.7947218824460833
 20
-34.2227489119908412
 30
0.0
 40
2.6999999874161311
 50
89.9290824560212769
 51
165.331255680040897
  0
ARC
  5
DA0A
  8
01_表面形状
 62
     3
 10
894.8014057017627465
 20
-34.2227489119908412
 30
0.0
 40
2.6999999874161311
 50
359.9999999999902229
 51
90.0709175439656633
  0
ARC
  5
DA0B
  8
01_表面形状
 62
     3
 10
894.7947218824463107
 20
-34.2227489119910899
 30
0.0
 40
1.199999994407168
 50
89.8404353605596668
 51
165.4968843844503965
  0
ARC
  5
DA0C
  8
01_表面形状
 62
     3
 10
894.8014057017627465
 20
-34.2227489119910899
 30
0.0
 40
1.199999994407168
 50
0.0
 51
90.1595646394403332
  0
LINE
  5
DA0D
  8
01_表面形状
 62
     3
 10
887.6513162709097742
 20
-31.5227489245749304
 30
0.0
 11
889.4453848063512851
 21
-31.5227489245749304
 31
0.0
  0
LINE
  5
DA0E
  8
01_表面形状
 62
     3
 10
886.3176439261095538
 20
-37.5227488966108211
 30
0.0
 11
888.1117124615514058
 21
-37.5227488966108211
 31
0.0
  0
LINE
  5
DA0F
  8
01_表面形状
 62
     3
 10
887.289584862813399
 20
-36.7727489001062793
 30
0.0
 11
887.450354377522558
 21
-36.7727489001062793
 31
0.0
  0
ARC
  5
DA10
  8
01_表面形状
 62
     3
 10
887.450354377522558
 20
-34.9727489084955607
 30
0.0
 40
1.7999999916107541
 50
270.0
 51
345.0000000000025011
  0
LINE
  5
DA11
  8
01_表面形状
 62
     3
 10
887.6513162709097742
 20
-31.5227489245749304
 30
0.0
 11
889.4453848063512851
 21
-31.5227489245749304
 31
0.0
  0
ARC
  5
DA12
  8
01_表面形状
 62
     3
 10
889.4453848063512851
 20
-33.3227489161857022
 30
0.0
 40
1.7999999916107541
 50
345.0
 51
90.0
  0
ARC
  5
DA13
  8
01_表面形状
 62
     3
 10
887.6513162709097742
 20
-34.2227489119910899
 30
0.0
 40
2.6999999874161311
 50
90.0
 51
165.0
  0
LINE
  5
DA14
  8
01_表面形状
 62
     3
 10
888.3126743549388493
 20
-32.2727489210793976
 30
0.0
 11
888.4734438696472125
 21
-32.2727489210793976
 31
0.0
  0
ARC
  5
DA15
  8
01_表面形状
 62
     3
 10
888.3126743549388493
 20
-34.0727489126901233
 30
0.0
 40
1.7999999916107541
 50
90.0
 51
165.0
  0
LINE
  5
DA16
  8
01_表面形状
 62
     3
 10
885.0433165520842067
 20
-33.5239374934712373
 30
0.0
 11
884.5789774468928499
 21
-35.256874625986903
 31
0.0
  0
ARC
  5
DA17
  8
01_表面形状
 62
     3
 10
886.3176439261095538
 20
-35.7227489050000315
 30
0.0
 40
1.7999999916107541
 50
165.0
 51
270.0
  0
LINE
  5
DA18
  8
01_表面形状
 62
     3
 10
886.574007875721577
 20
-33.6068746336766822
 30
0.0
 11
886.1304738766690434
 21
-35.2621660530234706
 31
0.0
  0
ARC
  5
DA19
  8
01_表面形状
 62
     3
 10
887.289584862813399
 20
-35.5727489056991715
 30
0.0
 40
1.199999994407168
 50
165.0
 51
270.0
  0
LINE
  5
DA1A
  8
01_表面形状
 62
     3
 10
891.1840512855685574
 20
-33.7886231951989728
 30
0.0
 11
890.7197121803769733
 21
-35.5215603277146172
 31
0.0
  0
ARC
  5
DA1B
  8
01_表面形状
 62
     3
 10
888.1117124615514058
 20
-34.8227489091946509
 30
0.0
 40
2.6999999874161311
 50
270.0
 51
345.0
  0
LINE
  5
DA1C
  8
01_表面形状
 62
     3
 10
889.6325548557920229
 20
-33.7833317681620926
 30
0.0
 11
889.1890208567398304
 21
-35.4386231875087532
 31
0.0
  0
ARC
  5
DA1D
  8
01_表面形状
 62
     3
 10
888.4734438696472125
 20
-33.4727489154866191
 30
0.0
 40
1.199999994407168
 50
345.0000000000025011
 51
90.0
  0
LINE
  5
DA1E
  8
01_表面形状
 62
     3
 10
894.721058491943495
 20
-31.5227489245749304
 30
0.0
 11
894.7229009431113127
 21
-31.5227489245749304
 31
0.0
  0
LINE
  5
DA1F
  8
01_表面形状
 62
     3
 10
892.8691200342295815
 20
-36.7727489001062793
 30
0.0
 11
896.0014056961696269
 21
-36.7727489001065919
 31
0.0
  0
LINE
  5
DA20
  8
01_表面形状
 62
     3
 10
894.0475009526918484
 20
-36.0227489036018724
 30
0.0
 11
895.2514056996649288
 21
-36.0227489036021211
 31
0.0
  0
LINE
  5
DA21
  8
01_表面形状
 62
     3
 10
894.721058491943495
 20
-33.0227489175838684
 30
0.0
 11
894.7229009431109716
 21
-33.0227489175838684
 31
0.0
  0
LINE
  5
DA22
  8
01_表面形状
 62
     3
 10
892.1867221636202885
 20
-33.5239374934709815
 30
0.0
 11
891.3682185362001746
 21
-36.5786346171841785
 31
0.0
  0
LINE
  5
DA23
  8
01_表面形状
 62
     3
 10
893.6546763846902195
 20
-33.8410126879770914
 30
0.0
 11
893.3230565863511856
 21
-35.0786346241752369
 31
0.0
  0
LINE
  5
DA24
  8
01_表面形状
 62
     3
 10
892.8691200342295815
 20
-36.7727489001062793
 30
0.0
 11
892.8171072688810455
 21
-36.9668631830286927
 31
0.0
  0
LINE
  5
DA25
  8
01_表面形状
 62
     3
 10
897.5014056891787959
 20
-34.1267489124386927
 30
0.0
 11
897.5014056891784548
 21
-36.7727489001067198
 31
0.0
  0
LINE
  5
DA26
  8
01_表面形状
 62
     3
 10
896.0014056961696269
 20
-34.2227489119910899
 30
0.0
 11
896.0014056961696269
 21
-35.2727489070975224
 31
0.0
  0
ARC
  5
DA27
  8
01_表面形状
 62
     3
 10
892.092662902540269
 20
-36.7727489001062793
 30
0.0
 40
0.7499999965044811
 50
165.0000000000025864
 51
344.999999999986585
  0
ARC
  5
DA28
  8
01_表面形状
 62
     3
 10
896.7514056926737567
 20
-36.7727489001065919
 30
0.0
 40
0.7499999965044811
 50
180.0
 51
0.0
  0
ARC
  5
DA29
  8
01_表面形状
 62
     3
 10
894.0475009526918484
 20
-35.2727489070973874
 30
0.0
 40
0.7499999965044811
 50
165.0000000000025864
 51
270.0
  0
ARC
  5
DA2A
  8
01_表面形状
 62
     3
 10
895.2514056996649288
 20
-35.2727489070976716
 30
0.0
 40
0.7499999965044811
 50
270.0
 51
0.0000000000032569
  0
ARC
  5
DA2B
  8
01_表面形状
 62
     3
 10
894.7947218824460833
 20
-34.2227489119908412
 30
0.0
 40
2.6999999874161311
 50
89.9290824560212769
 51
165.331255680040897
  0
ARC
  5
DA2C
  8
01_表面形状
 62
     3
 10
894.8014057017627465
 20
-34.2227489119908412
 30
0.0
 40
2.6999999874161311
 50
359.9999999999902229
 51
90.0709175439656633
  0
ARC
  5
DA2D
  8
01_表面形状
 62
     3
 10
894.7947218824463107
 20
-34.2227489119910899
 30
0.0
 40
1.199999994407168
 50
89.8404353605596668
 51
165.4968843844503965
  0
ARC
  5
DA2E
  8
01_表面形状
 62
     3
 10
894.8014057017627465
 20
-34.2227489119910899
 30
0.0
 40
1.199999994407168
 50
0.0
 51
90.1595646394403332
  0
LINE
  5
DA2F
  8
01_表面形状
 62
     3
 10
879.1351659039050901
 20
-31.5227489245749304
 30
0.0
 11
883.7939086940373272
 21
-31.5227489245749304
 31
0.0
  0
LINE
  5
DA30
  8
01_表面形状
 62
     3
 10
881.8910834092346249
 20
-33.5786346311662385
 30
0.0
 11
880.983210304990962
 21
-36.9668631830285719
 31
0.0
  0
LINE
  5
DA31
  8
01_表面形状
 62
     3
 10
881.8910834092346249
 20
-33.5786346311662385
 30
0.0
 11
880.983210304990962
 21
-36.9668631830285719
 31
0.0
  0
LINE
  5
DA32
  8
01_表面形状
 62
     3
 10
881.8910834092346249
 20
-33.5786346311659116
 30
0.0
 11
880.983210304990962
 21
-36.9668631830285719
 31
0.0
  0
ARC
  5
DA33
  8
01_表面形状
 62
     3
 10
879.1351659039050901
 20
-32.2727489210793976
 30
0.0
 40
0.7499999965044811
 50
90.0
 51
270.0
  0
ARC
  5
DA34
  8
01_表面形状
 62
     3
 10
883.7939086940373272
 20
-32.2727489210793976
 30
0.0
 40
0.7499999965044811
 50
270.0
 51
90.0
  0
ARC
  5
DA35
  8
01_表面形状
 62
     3
 10
880.2587659386500718
 20
-36.7727489001062793
 30
0.0
 40
0.7499999965044811
 50
164.2944179854794982
 51
345.0
  0
LINE
  5
DA36
  8
01_表面形状
 62
     3
 10
880.3353923537657693
 20
-33.5892174852396721
 30
0.0
 11
879.5319860991063479
 21
-36.5875704467466392
 31
0.0
  0
VIEWPORT
  5
542
 67
     1
  8
0
 10
185.6233038915470104
 20
148.4223392912986128
 30
0.0
 40
450.4060917083240838
 41
309.2814998667927853
 68
     1
 69
     1
1001
ACAD
1000
MVIEW
1002
{
1070
    16
1010
0.0
1020
0.0
1030
0.0
1010
0.0
1020
0.0
1030
1.0
1040
0.0
1040
309.2814998667927853
1040
185.6233038915470104
1040
148.4223392912986128
1040
50.0
1040
0.0
1040
0.0
1070
     0
1070
  1000
1070
     1
1070
     1
1070
     0
1070
     0
1070
     0
1070
     0
1040
0.0
1040
0.0
1040
0.0
1040
10.0
1040
10.0
1040
10.0
1040
10.0
1070
     0
1002
{
1002
}
1002
}
  0
ENDSEC
  0
EOF
