  0
SECTION
  2
HEADER
  9
$ACADVER
  1
AC1024
  9
$ACADMAINTVER
 70
   205
  9
$DWGCODEPAGE
  3
ANSI_932
  9
$LASTSAVEDBY
  1
it150
  9
$INSBASE
 10
0.0
 20
0.0
 30
0.0
  9
$EXTMIN
 10
49.47522968119142
 20
91.7526376461069
 30
-0.0015258207003583
  9
$EXTMAX
 10
190.2989432164079
 20
310.7755714725342
 30
0.0000000349246037
  9
$LIMMIN
 10
0.0
 20
0.0
  9
$LIMMAX
 10
297.0
 20
210.0
  9
$ORTHOMODE
 70
     0
  9
$REGENMODE
 70
     1
  9
$FILLMODE
 70
     1
  9
$QTEXTMODE
 70
     0
  9
$MIRRTEXT
 70
     0
  9
$LTSCALE
 40
0.4
  9
$ATTMODE
 70
     1
  9
$TEXTSIZE
 40
5.0
  9
$TRACEWID
 40
1.0
  9
$TEXTSTYLE
  7
Standard
  9
$CLAYER
  8
01_表面形状
  9
$CELTYPE
  6
ByLayer
  9
$CECOLOR
 62
   256
  9
$CELTSCALE
 40
1.0
  9
$DISPSILH
 70
     0
  9
$DIMSCALE
 40
1.0
  9
$DIMASZ
 40
2.5
  9
$DIMEXO
 40
1.0
  9
$DIMDLI
 40
10.0
  9
$DIMRND
 40
0.0
  9
$DIMDLE
 40
0.0
  9
$DIMEXE
 40
1.0
  9
$DIMTP
 40
0.1
  9
$DIMTM
 40
0.1
  9
$DIMTXT
 40
2.5
  9
$DIMCEN
 40
0.0
  9
$DIMTSZ
 40
0.0
  9
$DIMTOL
 70
     0
  9
$DIMLIM
 70
     0
  9
$DIMTIH
 70
     0
  9
$DIMTOH
 70
     0
  9
$DIMSE1
 70
     0
  9
$DIMSE2
 70
     0
  9
$DIMTAD
 70
     3
  9
$DIMZIN
 70
     8
  9
$DIMBLK
  1

  9
$DIMASO
 70
     1
  9
$DIMSHO
 70
     1
  9
$DIMPOST
  1

  9
$DIMAPOST
  1

  9
$DIMALT
 70
     0
  9
$DIMALTD
 70
     2
  9
$DIMALTF
 40
25.4
  9
$DIMLFAC
 40
1.0
  9
$DIMTOFL
 70
     1
  9
$DIMTVP
 40
0.0
  9
$DIMTIX
 70
     0
  9
$DIMSOXD
 70
     0
  9
$DIMSAH
 70
     0
  9
$DIMBLK1
  1

  9
$DIMBLK2
  1

  9
$DIMSTYLE
  2
部品図用_1：1
  9
$DIMCLRD
 70
   256
  9
$DIMCLRE
 70
   256
  9
$DIMCLRT
 70
   256
  9
$DIMTFAC
 40
0.7
  9
$DIMGAP
 40
1.0
  9
$DIMJUST
 70
     0
  9
$DIMSD1
 70
     0
  9
$DIMSD2
 70
     0
  9
$DIMTOLJ
 70
     0
  9
$DIMTZIN
 70
     0
  9
$DIMALTZ
 70
     0
  9
$DIMALTTZ
 70
     0
  9
$DIMUPT
 70
     0
  9
$DIMDEC
 70
     2
  9
$DIMTDEC
 70
     2
  9
$DIMALTU
 70
     2
  9
$DIMALTTD
 70
     2
  9
$DIMTXSTY
  7
Standard
  9
$DIMAUNIT
 70
     0
  9
$DIMADEC
 70
     2
  9
$DIMALTRND
 40
0.0
  9
$DIMAZIN
 70
     2
  9
$DIMDSEP
 70
    46
  9
$DIMATFIT
 70
     3
  9
$DIMFRAC
 70
     0
  9
$DIMLDRBLK
  1

  9
$DIMLUNIT
 70
     2
  9
$DIMLWD
 70
    -1
  9
$DIMLWE
 70
    -1
  9
$DIMTMOVE
 70
     0
  9
$DIMFXL
 40
1.0
  9
$DIMFXLON
 70
     0
  9
$DIMJOGANG
 40
0.7853981633974483
  9
$DIMTFILL
 70
     0
  9
$DIMTFILLCLR
 70
     0
  9
$DIMARCSYM
 70
     1
  9
$DIMLTYPE
  6
ByLayer
  9
$DIMLTEX1
  6
ByLayer
  9
$DIMLTEX2
  6
ByLayer
  9
$DIMTXTDIRECTION
 70
     0
  9
$LUNITS
 70
     2
  9
$LUPREC
 70
     2
  9
$SKETCHINC
 40
1.0
  9
$FILLETRAD
 40
0.0
  9
$AUNITS
 70
     1
  9
$AUPREC
 70
     3
  9
$MENU
  1
.
  9
$ELEVATION
 40
0.0
  9
$PELEVATION
 40
0.0
  9
$THICKNESS
 40
0.0
  9
$LIMCHECK
 70
     0
  9
$CHAMFERA
 40
0.0
  9
$CHAMFERB
 40
0.0
  9
$CHAMFERC
 40
0.0
  9
$CHAMFERD
 40
0.0
  9
$SKPOLY
 70
     0
  9
$TDCREATE
 40
2457987.640277778
  9
$TDUCREATE
 40
2457987.265277778
  9
$TDUPDATE
 40
2457998.417089919
  9
$TDUUPDATE
 40
2457998.042089919
  9
$TDINDWG
 40
0.0123638889
  9
$TDUSRTIMER
 40
0.0123638889
  9
$USRTIMER
 70
     1
  9
$ANGBASE
 50
0.0
  9
$ANGDIR
 70
     0
  9
$PDMODE
 70
     3
  9
$PDSIZE
 40
0.0
  9
$PLINEWID
 40
0.0
  9
$SPLFRAME
 70
     0
  9
$SPLINETYPE
 70
     6
  9
$SPLINESEGS
 70
     8
  9
$HANDSEED
  5
F16C
  9
$SURFTAB1
 70
     6
  9
$SURFTAB2
 70
     6
  9
$SURFTYPE
 70
     6
  9
$SURFU
 70
     6
  9
$SURFV
 70
     6
  9
$UCSBASE
  2

  9
$UCSNAME
  2

  9
$UCSORG
 10
0.0
 20
0.0
 30
0.0
  9
$UCSXDIR
 10
1.0
 20
0.0
 30
0.0
  9
$UCSYDIR
 10
0.0
 20
1.0
 30
0.0
  9
$UCSORTHOREF
  2

  9
$UCSORTHOVIEW
 70
     0
  9
$UCSORGTOP
 10
0.0
 20
0.0
 30
0.0
  9
$UCSORGBOTTOM
 10
0.0
 20
0.0
 30
0.0
  9
$UCSORGLEFT
 10
0.0
 20
0.0
 30
0.0
  9
$UCSORGRIGHT
 10
0.0
 20
0.0
 30
0.0
  9
$UCSORGFRONT
 10
0.0
 20
0.0
 30
0.0
  9
$UCSORGBACK
 10
0.0
 20
0.0
 30
0.0
  9
$PUCSBASE
  2

  9
$PUCSNAME
  2

  9
$PUCSORG
 10
0.0
 20
0.0
 30
0.0
  9
$PUCSXDIR
 10
1.0
 20
0.0
 30
0.0
  9
$PUCSYDIR
 10
0.0
 20
1.0
 30
0.0
  9
$PUCSORTHOREF
  2

  9
$PUCSORTHOVIEW
 70
     0
  9
$PUCSORGTOP
 10
0.0
 20
0.0
 30
0.0
  9
$PUCSORGBOTTOM
 10
0.0
 20
0.0
 30
0.0
  9
$PUCSORGLEFT
 10
0.0
 20
0.0
 30
0.0
  9
$PUCSORGRIGHT
 10
0.0
 20
0.0
 30
0.0
  9
$PUCSORGFRONT
 10
0.0
 20
0.0
 30
0.0
  9
$PUCSORGBACK
 10
0.0
 20
0.0
 30
0.0
  9
$USERI1
 70
     0
  9
$USERI2
 70
     0
  9
$USERI3
 70
     0
  9
$USERI4
 70
     0
  9
$USERI5
 70
     0
  9
$USERR1
 40
0.0
  9
$USERR2
 40
0.0
  9
$USERR3
 40
0.0
  9
$USERR4
 40
0.0
  9
$USERR5
 40
0.0
  9
$WORLDVIEW
 70
     1
  9
$SHADEDGE
 70
     3
  9
$SHADEDIF
 70
    70
  9
$TILEMODE
 70
     1
  9
$MAXACTVP
 70
    64
  9
$PINSBASE
 10
0.0
 20
0.0
 30
0.0
  9
$PLIMCHECK
 70
     0
  9
$PEXTMIN
 10
1.000000000000000E+20
 20
1.000000000000000E+20
 30
1.000000000000000E+20
  9
$PEXTMAX
 10
-1.000000000000000E+20
 20
-1.000000000000000E+20
 30
-1.000000000000000E+20
  9
$PLIMMIN
 10
-5.873748779296875
 20
-5.873749732971191
  9
$PLIMMAX
 10
291.1369018554688
 20
204.0995779037475
  9
$UNITMODE
 70
     0
  9
$VISRETAIN
 70
     1
  9
$PLINEGEN
 70
     0
  9
$PSLTSCALE
 70
     1
  9
$TREEDEPTH
 70
  3020
  9
$CMLSTYLE
  2
Standard
  9
$CMLJUST
 70
     0
  9
$CMLSCALE
 40
20.0
  9
$PROXYGRAPHICS
 70
     1
  9
$MEASUREMENT
 70
     1
  9
$CELWEIGHT
370
    -1
  9
$ENDCAPS
280
     0
  9
$JOINSTYLE
280
     0
  9
$LWDISPLAY
290
     0
  9
$INSUNITS
 70
     4
  9
$HYPERLINKBASE
  1

  9
$STYLESHEET
  1
monochrome.ctb
  9
$XEDIT
290
     1
  9
$CEPSNTYPE
380
     0
  9
$PSTYLEMODE
290
     1
  9
$FINGERPRINTGUID
  2
{57003DB5-EE24-A341-9700-AF92287ACF74}
  9
$VERSIONGUID
  2
{F5EB3C36-3826-4918-A8CA-214C1C79837C}
  9
$EXTNAMES
290
     1
  9
$PSVPSCALE
 40
0.0
  9
$OLESTARTUP
290
     0
  9
$SORTENTS
280
   127
  9
$INDEXCTL
280
     0
  9
$HIDETEXT
280
     1
  9
$XCLIPFRAME
280
     2
  9
$HALOGAP
280
     0
  9
$OBSCOLOR
 70
   257
  9
$OBSLTYPE
280
     0
  9
$INTERSECTIONDISPLAY
280
     0
  9
$INTERSECTIONCOLOR
 70
   257
  9
$DIMASSOC
280
     2
  9
$PROJECTNAME
  1

  9
$CAMERADISPLAY
290
     0
  9
$LENSLENGTH
 40
50.0
  9
$CAMERAHEIGHT
 40
0.0
  9
$STEPSPERSEC
 40
2.0
  9
$STEPSIZE
 40
6.0
  9
$3DDWFPREC
 40
2.0
  9
$PSOLWIDTH
 40
0.25
  9
$PSOLHEIGHT
 40
4.0
  9
$LOFTANG1
 40
1.570796326794896
  9
$LOFTANG2
 40
1.570796326794896
  9
$LOFTMAG1
 40
0.0
  9
$LOFTMAG2
 40
0.0
  9
$LOFTPARAM
 70
     7
  9
$LOFTNORMALS
280
     1
  9
$LATITUDE
 40
37.795
  9
$LONGITUDE
 40
-122.394
  9
$NORTHDIRECTION
 40
0.0
  9
$TIMEZONE
 70
 -8000
  9
$LIGHTGLYPHDISPLAY
280
     1
  9
$TILEMODELIGHTSYNCH
280
     1
  9
$CMATERIAL
347
11
  9
$SOLIDHIST
280
     1
  9
$SHOWHIST
280
     1
  9
$DWFFRAME
280
     2
  9
$DGNFRAME
280
     0
  9
$REALWORLDSCALE
290
     1
  9
$INTERFERECOLOR
 62
     1
  9
$INTERFEREOBJVS
345
1E
  9
$INTERFEREVPVS
346
1B
  9
$CSHADOW
280
     0
  9
$SHADOWPLANELOCATION
 40
0.0
  0
ENDSEC
  0
SECTION
  2
CLASSES
  0
CLASS
  1
ACDBDICTIONARYWDFLT
  2
AcDbDictionaryWithDefault
  3
ObjectDBX Classes
 90
        0
 91
        1
280
     0
281
     0
  0
CLASS
  1
MATERIAL
  2
AcDbMaterial
  3
ObjectDBX Classes
 90
     1153
 91
        3
280
     0
281
     0
  0
CLASS
  1
VISUALSTYLE
  2
AcDbVisualStyle
  3
ObjectDBX Classes
 90
     4095
 91
       26
280
     0
281
     0
  0
CLASS
  1
TABLESTYLE
  2
AcDbTableStyle
  3
ObjectDBX Classes
 90
     4095
 91
        1
280
     0
281
     0
  0
CLASS
  1
DICTIONARYVAR
  2
AcDbDictionaryVar
  3
ObjectDBX Classes
 90
        0
 91
       14
280
     0
281
     0
  0
CLASS
  1
SORTENTSTABLE
  2
AcDbSortentsTable
  3
ObjectDBX Classes
 90
        0
 91
        2
280
     0
281
     0
  0
CLASS
  1
DIMASSOC
  2
AcDbDimAssoc
  3
"AcDbDimAssoc|Product Desc:     AcDim ARX App For Dimension|Company:          Autodesk, Inc.|WEB Address:      www.autodesk.com"
 90
        0
 91
        2
280
     0
281
     0
  0
CLASS
  1
SCALE
  2
AcDbScale
  3
ObjectDBX Classes
 90
     1153
 91
       17
280
     0
281
     0
  0
CLASS
  1
MLEADERSTYLE
  2
AcDbMLeaderStyle
  3
ACDB_MLEADERSTYLE_CLASS
 90
     4095
 91
        5
280
     0
281
     0
  0
CLASS
  1
CELLSTYLEMAP
  2
AcDbCellStyleMap
  3
ObjectDBX Classes
 90
     1152
 91
        1
280
     0
281
     0
  0
CLASS
  1
MULTILEADER
  2
AcDbMLeader
  3
ACDB_MLEADER_CLASS
 90
     1025
 91
        0
280
     0
281
     1
  0
CLASS
  1
ACAD_EVALUATION_GRAPH
  2
AcDbEvalGraph
  3
ObjectDBX Classes
 90
     1153
 91
        0
280
     0
281
     0
  0
CLASS
  1
ACAECUSTOBJ
  2
AcAeEditorObj
  3
AcAeEditorObj
 90
     1024
 91
        0
280
     0
281
     0
  0
CLASS
  1
PLOTSETTINGS
  2
AcDbPlotSettings
  3
ObjectDBX Classes
 90
        0
 91
        2
280
     0
281
     0
  0
CLASS
  1
ACDBSECTIONVIEWSTYLE
  2
AcDbSectionViewStyle
  3
ObjectDBX Classes
 90
     1025
 91
        1
280
     0
281
     0
  0
CLASS
  1
ACDBDETAILVIEWSTYLE
  2
AcDbDetailViewStyle
  3
ObjectDBX Classes
 90
     1025
 91
        1
280
     0
281
     0
  0
ENDSEC
  0
SECTION
  2
TABLES
  0
TABLE
  2
VPORT
  5
8
102
{ACAD_XDICTIONARY
360
366A
102
}
330
0
100
AcDbSymbolTable
 70
     1
  0
VPORT
  5
28
330
8
100
AcDbSymbolTableRecord
100
AcDbViewportTableRecord
  2
*Active
 70
     0
 10
0.0
 20
0.0
 11
1.0
 21
1.0
 12
119.8870864487997
 22
201.2641045593206
 13
0.0
 23
0.0
 14
10.0
 24
10.0
 15
10.0
 25
10.0
 16
0.0
 26
0.0
 36
1.0
 17
0.0
 27
0.0
 37
0.0
 40
220.7185952495997
 41
1.996124031007751
 42
50.0
 43
0.0
 44
0.0
 50
0.0
 51
0.0
 71
     0
 72
  1000
 73
     1
 74
     3
 75
     0
 76
     0
 77
     0
 78
     0
281
     0
 65
     1
110
0.0
120
0.0
130
0.0
111
1.0
121
0.0
131
0.0
112
0.0
122
1.0
132
0.0
 79
     0
146
0.0
348
1A
 60
     3
 61
     5
292
     1
282
     1
141
0.0
142
0.0
 63
   250
421
  3355443
1001
ACAD_NAV_VCDISPLAY
1070
     3
  0
ENDTAB
  0
TABLE
  2
LTYPE
  5
5
330
0
100
AcDbSymbolTable
 70
     4
  0
LTYPE
  5
29
330
5
100
AcDbSymbolTableRecord
100
AcDbLinetypeTableRecord
  2
ByBlock
 70
     0
  3

 72
    65
 73
     0
 40
0.0
  0
LTYPE
  5
2A
330
5
100
AcDbSymbolTableRecord
100
AcDbLinetypeTableRecord
  2
ByLayer
 70
     0
  3

 72
    65
 73
     0
 40
0.0
  0
LTYPE
  5
2B
330
5
100
AcDbSymbolTableRecord
100
AcDbLinetypeTableRecord
  2
Continuous
 70
     0
  3
Solid line
 72
    65
 73
     0
 40
0.0
  0
LTYPE
  5
1829
330
5
100
AcDbSymbolTableRecord
100
AcDbLinetypeTableRecord
  2
CENTER
 70
     0
  3
Center ____ _ ____ _ ____ _ ____ _ ____ _ ____
 72
    65
 73
     4
 40
50.8
 49
31.75
 74
     0
 49
-6.349999999999999
 74
     0
 49
6.349999999999999
 74
     0
 49
-6.349999999999999
 74
     0
  0
ENDTAB
  0
TABLE
  2
LAYER
  5
2
102
{ACAD_XDICTIONARY
360
81
102
}
330
0
100
AcDbSymbolTable
 70
    19
  0
LAYER
  5
25
102
{ACAD_XDICTIONARY
360
3620
102
}
330
2
100
AcDbSymbolTableRecord
100
AcDbLayerTableRecord
  2
0
 70
     0
 62
     7
  6
Continuous
370
    13
390
F
347
13
  0
LAYER
  5
75
102
{ACAD_XDICTIONARY
360
3622
102
}
330
2
100
AcDbSymbolTableRecord
100
AcDbLayerTableRecord
  2
01_表面形状
 70
     0
 62
     7
  6
Continuous
370
    35
390
F
347
13
1001
AcAecLayerStandard
1000

1000

  0
LAYER
  5
77
102
{ACAD_XDICTIONARY
360
3624
102
}
330
2
100
AcDbSymbolTableRecord
100
AcDbLayerTableRecord
  2
04_中心線
 70
     0
 62
     4
  6
CENTER
370
    18
390
F
347
13
1001
AcAecLayerStandard
1000

1000

  0
LAYER
  5
7C
102
{ACAD_XDICTIONARY
360
362E
102
}
330
2
100
AcDbSymbolTableRecord
100
AcDbLayerTableRecord
  2
12_文字
 70
     0
 62
     2
  6
Continuous
370
    25
390
F
347
13
1001
AcAecLayerStandard
1000

1000

  0
LAYER
  5
1EA
102
{ACAD_XDICTIONARY
360
93D8
102
}
330
2
100
AcDbSymbolTableRecord
100
AcDbLayerTableRecord
  2
Defpoints
 70
     0
 62
     7
  6
Continuous
290
     0
370
    -3
390
F
347
13
  0
ENDTAB
  0
TABLE
  2
STYLE
  5
3
330
0
100
AcDbSymbolTable
 70
     2
  0
STYLE
  5
26
330
3
100
AcDbSymbolTableRecord
100
AcDbTextStyleTableRecord
  2
Standard
 70
     0
 40
0.0
 41
1.0
 50
0.0
 71
     0
 42
5.0
  3
isocp.shx
  4
extfont2.shx
  0
STYLE
  5
E28E
330
3
100
AcDbSymbolTableRecord
100
AcDbTextStyleTableRecord
  2
MX_NOTE_STANDARD
 70
     0
 40
0.0
 41
1.0
 50
0.0
 71
     0
 42
3.299999999999999
  3
txt.shx
  4
extfont.shx
  0
ENDTAB
  0
TABLE
  2
VIEW
  5
6
330
0
100
AcDbSymbolTable
 70
     0
  0
ENDTAB
  0
TABLE
  2
UCS
  5
7
330
0
100
AcDbSymbolTable
 70
     0
  0
ENDTAB
  0
TABLE
  2
APPID
  5
9
330
0
100
AcDbSymbolTable
 70
    38
  0
APPID
  5
27
330
9
100
AcDbSymbolTableRecord
100
AcDbRegAppTableRecord
  2
ACAD
 70
     0
  0
APPID
  5
76
330
9
100
AcDbSymbolTableRecord
100
AcDbRegAppTableRecord
  2
AcAecLayerStandard
 70
     0
  0
APPID
  5
117
330
9
100
AcDbSymbolTableRecord
100
AcDbRegAppTableRecord
  2
ACAD_PSEXT
 70
     0
  0
APPID
  5
2A4
330
9
100
AcDbSymbolTableRecord
100
AcDbRegAppTableRecord
  2
ACAD_EXEMPT_FROM_CAD_STANDARDS
 70
     0
  0
APPID
  5
185C
330
9
100
AcDbSymbolTableRecord
100
AcDbRegAppTableRecord
  2
GENIUS_GENODEF_13
 70
     0
  0
APPID
  5
185D
330
9
100
AcDbSymbolTableRecord
100
AcDbRegAppTableRecord
  2
GENIUS_GENOBJ-N-CEN_13
 70
     0
  0
APPID
  5
185E
330
9
100
AcDbSymbolTableRecord
100
AcDbRegAppTableRecord
  2
GENIUS_GENCEN_19
 70
     0
  0
APPID
  5
185F
330
9
100
AcDbSymbolTableRecord
100
AcDbRegAppTableRecord
  2
GENIUS_GENTRA_14
 70
     0
  0
APPID
  5
1860
330
9
100
AcDbSymbolTableRecord
100
AcDbRegAppTableRecord
  2
GENIUS_GENOREF_13
 70
     0
  0
APPID
  5
1861
330
9
100
AcDbSymbolTableRecord
100
AcDbRegAppTableRecord
  2
GENIUS_GENSCREG_15
 70
     0
  0
APPID
  5
1862
330
9
100
AcDbSymbolTableRecord
100
AcDbRegAppTableRecord
  2
GENIUS_GENOBJ-N-SDF_13
 70
     0
  0
APPID
  5
1863
330
9
100
AcDbSymbolTableRecord
100
AcDbRegAppTableRecord
  2
GENIUS_GENOBJ-N-LIB_13
 70
     0
  0
APPID
  5
1864
330
9
100
AcDbSymbolTableRecord
100
AcDbRegAppTableRecord
  2
GENIUS_GENOBJ-N-RSBK_13
 70
     0
  0
APPID
  5
1865
330
9
100
AcDbSymbolTableRecord
100
AcDbRegAppTableRecord
  2
GENIUS_GENSCALE_13
 70
     0
  0
APPID
  5
1866
330
9
100
AcDbSymbolTableRecord
100
AcDbRegAppTableRecord
  2
GENIUS_AMGTXT_16
 70
     0
  0
APPID
  5
1867
330
9
100
AcDbSymbolTableRecord
100
AcDbRegAppTableRecord
  2
GENIUS_GENFIL_13
 70
     0
  0
APPID
  5
1868
330
9
100
AcDbSymbolTableRecord
100
AcDbRegAppTableRecord
  2
GENIUS_GENOBJ-N-CHA_13
 70
     0
  0
APPID
  5
1869
330
9
100
AcDbSymbolTableRecord
100
AcDbRegAppTableRecord
  2
GENIUS_GENOBJ-N-FIL_13
 70
     0
  0
APPID
  5
186A
330
9
100
AcDbSymbolTableRecord
100
AcDbRegAppTableRecord
  2
GENIUS_GENDTOL_13
 70
     0
  0
APPID
  5
186B
330
9
100
AcDbSymbolTableRecord
100
AcDbRegAppTableRecord
  2
ACAD_DIMASSOC_DIMLFAC
 70
     0
  0
APPID
  5
186C
330
9
100
AcDbSymbolTableRecord
100
AcDbRegAppTableRecord
  2
ACAD_DIMASSOC_CALC_DIMLFAC
 70
     0
  0
APPID
  5
186D
330
9
100
AcDbSymbolTableRecord
100
AcDbRegAppTableRecord
  2
ACAD_DIMASSOC_OVERRIDDEN_DIMLFAC
 70
     0
  0
APPID
  5
186E
330
9
100
AcDbSymbolTableRecord
100
AcDbRegAppTableRecord
  2
GENIUS_GENOBJ-N-ZOO_13
 70
     0
  0
APPID
  5
186F
330
9
100
AcDbSymbolTableRecord
100
AcDbRegAppTableRecord
  2
GENIUS_GENZOO_16
 70
     0
  0
APPID
  5
1870
330
9
100
AcDbSymbolTableRecord
100
AcDbRegAppTableRecord
  2
ACAD_DSTYLE_DIMJAG
 70
     0
  0
APPID
  5
1871
330
9
100
AcDbSymbolTableRecord
100
AcDbRegAppTableRecord
  2
ACAD_DSTYLE_DIMTALN
 70
     0
  0
APPID
  5
1872
330
9
100
AcDbSymbolTableRecord
100
AcDbRegAppTableRecord
  2
ACAD_DSTYLE_DIMBREAK
 70
     0
  0
APPID
  5
3696
330
9
100
AcDbSymbolTableRecord
100
AcDbRegAppTableRecord
  2
ACAD_DSTYLE_DIMARC_LENGTH_SYMBOL
 70
     0
  0
APPID
  5
3697
330
9
100
AcDbSymbolTableRecord
100
AcDbRegAppTableRecord
  2
ACAD_DSTYLE_DIMJOGGED_JOGANGLE_SYMBOL
 70
     0
  0
APPID
  5
3698
330
9
100
AcDbSymbolTableRecord
100
AcDbRegAppTableRecord
  2
ACAD_DSTYLE_DIM_LINETYPE
 70
     0
  0
APPID
  5
3699
330
9
100
AcDbSymbolTableRecord
100
AcDbRegAppTableRecord
  2
ACAD_DSTYLE_DIM_EXT1_LINETYPE
 70
     0
  0
APPID
  5
369A
330
9
100
AcDbSymbolTableRecord
100
AcDbRegAppTableRecord
  2
ACAD_DSTYLE_DIM_EXT2_LINETYPE
 70
     0
  0
APPID
  5
369D
330
9
100
AcDbSymbolTableRecord
100
AcDbRegAppTableRecord
  2
AcDbAttr
 70
     0
  0
APPID
  5
36A6
330
9
100
AcDbSymbolTableRecord
100
AcDbRegAppTableRecord
  2
ACAD_MLEADERVER
 70
     0
  0
APPID
  5
3D75
330
9
100
AcDbSymbolTableRecord
100
AcDbRegAppTableRecord
  2
ACAD_DSTYLE_DIMRADIAL_EXTENSION
 70
     0
  0
APPID
  5
75B4
330
9
100
AcDbSymbolTableRecord
100
AcDbRegAppTableRecord
  2
AcadAnnoPO
 70
     0
  0
APPID
  5
7838
330
9
100
AcDbSymbolTableRecord
100
AcDbRegAppTableRecord
  2
ACAUTHENVIRON
 70
     0
  0
APPID
  5
DBA2
330
9
100
AcDbSymbolTableRecord
100
AcDbRegAppTableRecord
  2
ACAD_NAV_VCDISPLAY
 70
     0
  0
ENDTAB
  0
TABLE
  2
DIMSTYLE
  5
A
330
0
100
AcDbSymbolTable
 70
     5
100
AcDbDimStyleTable
 71
     1
340
185B
  0
DIMSTYLE
105
185B
330
A
100
AcDbSymbolTableRecord
100
AcDbDimStyleTableRecord
  2
部品図用_1：1
 70
     0
 41
2.5
 42
1.0
 43
10.0
 44
1.0
 47
0.1
 48
0.1
 73
     0
 74
     0
 77
     3
 78
     8
 79
     2
 90
     1
140
2.5
141
0.0
146
0.7
147
1.0
172
     1
176
   256
177
   256
178
   256
179
     2
271
     2
272
     2
283
     0
340
26
345
2A
346
2A
347
2A
371
    -1
372
    -1
1001
ACAD_DSTYLE_DIMBREAK
1070
   391
1040
3.5
1001
ACAD_DSTYLE_DIMJAG
1070
   388
1040
1.5
1001
ACAD_DSTYLE_DIMTALN
1070
   392
1070
     0
  0
DIMSTYLE
105
94C8
330
A
100
AcDbSymbolTableRecord
100
AcDbDimStyleTableRecord
  2
STANDARD
 70
     0
 73
     0
 74
     0
 77
     1
172
     1
271
     0
272
     0
289
     0
340
26
341
93E9
342
93E9
  0
ENDTAB
  0
TABLE
  2
BLOCK_RECORD
  5
1
330
0
100
AcDbSymbolTable
 70
    89
  0
BLOCK_RECORD
  5
37
102
{ACAD_XDICTIONARY
360
48
102
}
330
1
100
AcDbSymbolTableRecord
100
AcDbBlockTableRecord
  2
*Model_Space
340
3A
 70
     0
280
     1
281
     0
  0
BLOCK_RECORD
  5
33
102
{ACAD_XDICTIONARY
360
B96
102
}
330
1
100
AcDbSymbolTableRecord
100
AcDbBlockTableRecord
  2
*Paper_Space
340
36
 70
     0
280
     1
281
     0
  0
BLOCK_RECORD
  5
93E9
330
1
100
AcDbSymbolTableRecord
100
AcDbBlockTableRecord
  2
_Open30
340
0
 70
     0
280
     1
281
     0
  0
BLOCK_RECORD
  5
B85F
330
1
100
AcDbSymbolTableRecord
100
AcDbBlockTableRecord
  2
寸法表--単位文字
340
0
310
2800000020000000200000000100080000000000000400000000000000000000000000000000000000000000000080000080000000808000800000008000800080800000C0C0C000C0DCC000F0CAA6000020400000206000002080000020A0000020C0000020E00000400000004020000040400000406000004080000040A0
310
000040C0000040E00000600000006020000060400000606000006080000060A0000060C0000060E00000800000008020000080400000806000008080000080A0000080C0000080E00000A0000000A0200000A0400000A0600000A0800000A0A00000A0C00000A0E00000C0000000C0200000C0400000C0600000C0800000C0
310
A00000C0C00000C0E00000E0000000E0200000E0400000E0600000E0800000E0A00000E0C00000E0E00040000000400020004000400040006000400080004000A0004000C0004000E00040200000402020004020400040206000402080004020A0004020C0004020E000404000004040200040404000404060004040800040
310
40A0004040C0004040E00040600000406020004060400040606000406080004060A0004060C0004060E00040800000408020004080400040806000408080004080A0004080C0004080E00040A0000040A0200040A0400040A0600040A0800040A0A00040A0C00040A0E00040C0000040C0200040C0400040C0600040C08000
310
40C0A00040C0C00040C0E00040E0000040E0200040E0400040E0600040E0800040E0A00040E0C00040E0E00080000000800020008000400080006000800080008000A0008000C0008000E00080200000802020008020400080206000802080008020A0008020C0008020E00080400000804020008040400080406000804080
310
008040A0008040C0008040E00080600000806020008060400080606000806080008060A0008060C0008060E00080800000808020008080400080806000808080008080A0008080C0008080E00080A0000080A0200080A0400080A0600080A0800080A0A00080A0C00080A0E00080C0000080C0200080C0400080C0600080C0
310
800080C0A00080C0C00080C0E00080E0000080E0200080E0400080E0600080E0800080E0A00080E0C00080E0E000C0000000C0002000C0004000C0006000C0008000C000A000C000C000C000E000C0200000C0202000C0204000C0206000C0208000C020A000C020C000C020E000C0400000C0402000C0404000C0406000C0
310
408000C040A000C040C000C040E000C0600000C0602000C0604000C0606000C0608000C060A000C060C000C060E000C0800000C0802000C0804000C0806000C0808000C080A000C080C000C080E000C0A00000C0A02000C0A04000C0A06000C0A08000C0A0A000C0A0C000C0A0E000C0C00000C0C02000C0C04000C0C06000
310
C0C08000C0C0A000F0FBFF00A4A0A000808080000000FF0000FF000000FFFF00FF000000FF00FF00FFFF0000FFFFFF0000000000000000000000000000000000000000000000000000000000000000000000000000000000000000000000000000000000000000000000000000000000000000000000000000000000000000
310
00000000000000000000000000000000000000000000000000000000000000000000000000000000000000000000000000000000000000000000000000000000000000000000000000000000000000000000000000000000000000000000000000000000000000000000000000000000000000000000000000000000000000
310
000000000000000000000000000000000000000000000000000000000000000000000000000000000000000000000000000000000000000000000000000000000000000000000000000000000000000000000000000000000000FB00000000000000000000FB0000FBFBFBFBFBFBFBFBFB000000000000000000FB00000000
310
000000000000FB00000000FB0000FB0000000000FBFBFBFBFBFBFBFBFBFBFBFBFBFB00000000FB00000000FB0000FB000000000000000000000000FB00000000000000000000FB00000000FB0000FB00000000000000FBFBFBFBFBFBFBFBFBFB000000000000FB00000000FB0000FB00000000000000FB00000000FB000000
310
FB000000000000FB00000000FB0000FB00000000000000FB00000000FB000000FB000000000000FB000000FB00000000FB000000000000FBFBFBFBFBFBFBFBFBFB00000000FB00FB000000FB00000000FB000000000000FB00000000FB000000FB0000000000FBFB000000FB00000000FB000000000000FB00000000FB0000
310
00FB0000000000FBFB000000FB00000000FB000000000000FBFBFBFBFBFBFBFBFBFB000000000000FB0000FBFBFBFBFBFBFBFB00000000000000FB00FB0000FB000000000000000000FB0000000000FB000000000000000000FB0000FB000000FB000000000000000000FB00000000FB0000000000000000FB0000FB000000
310
00FB00000000000000000000FB000000FB0000000000000000000000000000000000000000000000000000000000000000000000000000000000000000000000000000000000000000000000000000000000000000000000000000000000000000000000000000000000000000000000000000000000000000000000000000
310
00000000000000000000000000000000000000000000000000000000000000000000000000000000000000000000000000000000000000000000000000000000000000000000000000000000000000000000000000000000000000000000000000000000000000000000000000000000000000000000000000000000000000
310
0000000000000000000000000000000000000000000000000000000000000000000000000000000000000000000000000000000000000000
102
{BLKREFS
331
BD3D
102
}
 70
     4
280
     1
281
     0
  0
ENDTAB
  0
ENDSEC
  0
SECTION
  2
BLOCKS
  0
BLOCK
  5
38
330
37
100
AcDbEntity
  8
0
100
AcDbBlockBegin
  2
*Model_Space
 70
     2
 10
0.0
 20
0.0
 30
0.0
  3
*Model_Space
  1

  0
ENDBLK
  5
39
330
37
100
AcDbEntity
  8
0
100
AcDbBlockEnd
  0
BLOCK
  5
34
330
33
100
AcDbEntity
 67
     1
  8
0
100
AcDbBlockBegin
  2
*Paper_Space
 70
     0
 10
0.0
 20
0.0
 30
0.0
  3
*Paper_Space
  1

  0
ENDBLK
  5
35
330
33
100
AcDbEntity
 67
     1
  8
0
100
AcDbBlockEnd
  0
BLOCK
  5
93EA
330
93E9
100
AcDbEntity
  8
0
100
AcDbBlockBegin
  2
_Open30
 70
     0
 10
0.0
 20
0.0
 30
0.0
  3
_Open30
  1

  0
LINE
  5
93EB
330
93E9
100
AcDbEntity
  8
0
  6
ByBlock
 62
     0
370
    -2
100
AcDbLine
 10
-1.0
 20
0.26794919
 30
0.0
 11
0.0
 21
0.0
 31
0.0
  0
LINE
  5
93EC
330
93E9
100
AcDbEntity
  8
0
  6
ByBlock
 62
     0
370
    -2
100
AcDbLine
 10
0.0
 20
0.0
 30
0.0
 11
-1.0
 21
-0.26794919
 31
0.0
  0
LINE
  5
93ED
330
93E9
100
AcDbEntity
  8
0
  6
ByBlock
 62
     0
370
    -2
100
AcDbLine
 10
0.0
 20
0.0
 30
0.0
 11
-1.0
 21
0.0
 31
0.0
  0
ENDBLK
  5
93EE
330
93E9
100
AcDbEntity
  8
0
100
AcDbBlockEnd
  0
BLOCK
  5
B860
330
B85F
100
AcDbEntity
  8
0
100
AcDbBlockBegin
  2
寸法表--単位文字
 70
     2
 10
0.0
 20
0.0
 30
0.0
  3
寸法表--単位文字
  1

  4
寸法表　単位文字
  0
ATTDEF
  5
CB81
330
B85F
100
AcDbEntity
  8
12_文字
100
AcDbText
 10
-11.64
 20
1.0
 30
0.0
 40
1.8
  1
単位（mm）
 72
     2
 11
0.0
 21
1.0
 31
0.0
100
AcDbAttributeDefinition
280
     0
  3
単位を入力
  2
単位
 70
     0
 74
     1
280
     1
  0
ENDBLK
  5
B861
330
B85F
100
AcDbEntity
  8
0
100
AcDbBlockEnd
  0
ENDSEC
  0
SECTION
  2
ENTITIES
  0
INSERT
  5
BD3D
330
37
100
AcDbEntity
  8
01_表面形状
100
AcDbBlockReference
  2
寸法表--単位文字
 10
1495.0
 20
-81.00000000000017
 30
0.0
  0
LINE
  5
E440
330
37
100
AcDbEntity
  8
04_中心線
 62
   110
100
AcDbLine
 10
54.52576336057939
 20
157.8175793869293
 30
0.0
 11
107.5257633605794
 21
157.8175793869293
 31
0.0
  0
LINE
  5
E441
330
37
100
AcDbEntity
  8
01_表面形状
 62
     3
100
AcDbLine
 10
102.0257633605794
 20
171.8886779907305
 30
0.0
 11
102.0257633605794
 21
143.7464807831282
 31
0.0
  0
LINE
  5
E442
330
37
100
AcDbEntity
  8
04_中心線
 62
   110
100
AcDbLine
 10
144.9233803201929
 20
157.8175793869293
 30
0.0
 11
181.6689923031222
 21
157.8175793869293
 31
0.0
  0
LINE
  5
E443
330
37
100
AcDbEntity
  8
01_表面形状
 62
     3
100
AcDbLine
 10
66.02576336057939
 20
186.8175793869293
 30
0.0
 11
96.02576336057939
 21
186.8175793869293
 31
0.0
  0
LINE
  5
E444
330
37
100
AcDbEntity
  8
01_表面形状
 62
     3
100
AcDbLine
 10
68.02576336057936
 20
176.0175793869293
 30
0.0
 11
94.02576336057936
 21
176.0175793869293
 31
0.0
  0
ARC
  5
E445
330
37
100
AcDbEntity
  8
01_表面形状
 62
     3
100
AcDbCircle
 10
68.02576336057936
 20
178.0175793869293
 30
0.0
 40
2.0
100
AcDbArc
 50
180.0
 51
270.0
  0
LINE
  5
E446
330
37
100
AcDbEntity
  8
04_中心線
 62
   110
100
AcDbLine
 10
81.02576336057939
 20
234.8175793869293
 30
0.0
 11
81.02576336057936
 21
138.1528825495128
 31
0.0
  0
LINE
  5
E447
330
37
100
AcDbEntity
  8
04_中心線
 62
   110
100
AcDbLine
 10
96.02576336057939
 20
189.3175793869293
 30
0.0
 11
96.02576336057939
 21
178.0175793869293
 31
0.0
  0
LINE
  5
E448
330
37
100
AcDbEntity
  8
04_中心線
 62
   110
100
AcDbLine
 10
66.02576336057942
 20
189.3175793869293
 30
0.0
 11
66.02576336057939
 21
178.0175793869293
 31
0.0
  0
LINE
  5
E449
330
37
100
AcDbEntity
  8
01_表面形状
 62
     3
100
AcDbLine
 10
92.02576336057935
 20
174.0175793869293
 30
0.0
 11
90.60844701145937
 21
157.8175793869293
 31
0.0
  0
ARC
  5
E44A
330
37
100
AcDbEntity
  8
01_表面形状
 62
     3
100
AcDbCircle
 10
93.47647137425132
 20
173.3886779907305
 30
0.0
 40
1.5
100
AcDbArc
 50
175.0000000000002
 51
270.0
  0
ARC
  5
E44B
330
37
100
AcDbEntity
  8
01_表面形状
 62
     3
100
AcDbCircle
 10
94.02576336057936
 20
174.0175793869293
 30
0.0
 40
2.0
100
AcDbArc
 50
90.0
 51
180.0
  0
LINE
  5
E44C
330
37
100
AcDbEntity
  8
01_表面形状
 62
     3
100
AcDbLine
 10
94.02576336057933
 20
175.189152262183
 30
0.0
 11
94.02576336057938
 21
172.8886779907305
 31
0.0
  0
ARC
  5
E44D
330
37
100
AcDbEntity
  8
01_表面形状
 62
     3
100
AcDbCircle
 10
95.02576336057941
 20
172.8886779907305
 30
0.0
 40
1.0
100
AcDbArc
 50
180.0
 51
270.0
  0
LINE
  5
E44E
330
37
100
AcDbEntity
  8
01_表面形状
 62
     3
100
AcDbLine
 10
77.22576336057935
 20
214.8175793869293
 30
0.0
 11
77.22576336057935
 21
208.5246556687797
 31
0.0
  0
LINE
  5
E44F
330
37
100
AcDbEntity
  8
01_表面形状
 62
     3
100
AcDbLine
 10
84.82576336057944
 20
214.8175793869293
 30
0.0
 11
84.8257633605794
 21
208.5246556687797
 31
0.0
  0
LINE
  5
E450
330
37
100
AcDbEntity
  8
01_表面形状
 62
     3
100
AcDbLine
 10
66.02576336057939
 20
186.8175793869293
 30
0.0
 11
66.02576336057936
 21
178.0175793869293
 31
0.0
  0
LINE
  5
E451
330
37
100
AcDbEntity
  8
01_表面形状
 62
     3
100
AcDbLine
 10
96.02576336057939
 20
186.8175793869293
 30
0.0
 11
96.02576336057939
 21
178.0175793869293
 31
0.0
  0
ARC
  5
E452
330
37
100
AcDbEntity
  8
01_表面形状
 62
     3
100
AcDbCircle
 10
94.02576336057938
 20
178.0175793869293
 30
0.0
 40
2.0
100
AcDbArc
 50
270.0
 51
0.0
  0
ARC
  5
E453
330
37
100
AcDbEntity
  8
01_表面形状
 62
     3
100
AcDbCircle
 10
95.02576336057932
 20
175.1891522621831
 30
0.0
 40
1.0
100
AcDbArc
 50
109.4712206344896
 51
180.0000000000016
  0
LINE
  5
E454
330
37
100
AcDbEntity
  8
04_中心線
 62
   110
100
AcDbLine
 10
163.2961863116575
 20
234.8175793869293
 30
0.0
 11
163.2961863116575
 21
138.4175793869293
 31
0.0
  0
LINE
  5
E455
330
37
100
AcDbEntity
  8
01_表面形状
 62
     3
100
AcDbLine
 10
162.2961863116575
 20
174.0175793869293
 30
0.0
 11
162.2961863116575
 21
171.4744644283574
 31
0.0
  0
LINE
  5
E456
330
37
100
AcDbEntity
  8
01_表面形状
 62
     3
100
AcDbLine
 10
164.2961863116575
 20
174.0175793869293
 30
0.0
 11
164.2961863116575
 21
171.4744644283574
 31
0.0
  0
LINE
  5
E457
330
37
100
AcDbEntity
  8
01_表面形状
 62
     3
100
AcDbLine
 10
95.0257633605794
 20
144.8175793869293
 30
0.0
 11
90.42576336057937
 21
144.8175793869293
 31
0.0
  0
CIRCLE
  5
E458
330
37
100
AcDbEntity
  8
01_表面形状
 62
     3
100
AcDbCircle
 10
163.2961863116575
 20
157.8175793869293
 30
0.0
 40
9.3
  0
CIRCLE
  5
E459
330
37
100
AcDbEntity
  8
01_表面形状
 62
     3
100
AcDbCircle
 10
163.2961863116575
 20
157.8175793869293
 30
0.0
 40
10.4775
  0
LINE
  5
E45A
330
37
100
AcDbEntity
  8
01_表面形状
 62
     3
100
AcDbLine
 10
148.2961863116575
 20
186.8175793869293
 30
0.0
 11
178.2961863116575
 21
186.8175793869294
 31
0.0
  0
LINE
  5
E45B
330
37
100
AcDbEntity
  8
01_表面形状
 62
     3
100
AcDbLine
 10
150.2961863116574
 20
176.0175793869293
 30
0.0
 11
176.2961863116575
 21
176.0175793869293
 31
0.0
  0
ARC
  5
E45C
330
37
100
AcDbEntity
  8
01_表面形状
 62
     3
100
AcDbCircle
 10
160.2961863116575
 20
174.0175793869293
 30
0.0
 40
2.0
100
AcDbArc
 50
0.0
 51
90.0
  0
ARC
  5
E45D
330
37
100
AcDbEntity
  8
01_表面形状
 62
     3
100
AcDbCircle
 10
166.2961863116575
 20
174.0175793869293
 30
0.0
 40
2.0
100
AcDbArc
 50
90.0
 51
180.0
  0
LINE
  5
E45E
330
37
100
AcDbEntity
  8
01_表面形状
 62
     3
100
AcDbLine
 10
148.2961863116575
 20
186.8175793869293
 30
0.0
 11
178.2961863116575
 21
186.8175793869294
 31
0.0
  0
LINE
  5
E45F
330
37
100
AcDbEntity
  8
01_表面形状
 62
     3
100
AcDbLine
 10
148.2961863116575
 20
189.3175793869293
 30
0.0
 11
178.2961863116575
 21
189.3175793869294
 31
0.0
  0
LINE
  5
E460
330
37
100
AcDbEntity
  8
01_表面形状
 62
     3
100
AcDbLine
 10
95.0257633605794
 20
143.7464807831282
 30
0.0
 11
95.02576336057941
 21
171.8886779907305
 31
0.0
  0
LINE
  5
E461
330
37
100
AcDbEntity
  8
01_表面形状
 62
     3
100
AcDbLine
 10
150.0641386039487
 20
159.8432274397966
 30
0.0
 11
149.8961863116575
 21
176.0579875927028
 31
0.0
  0
LINE
  5
E462
330
37
100
AcDbEntity
  8
01_表面形状
 62
     3
100
AcDbLine
 10
69.7757633605793
 20
195.1416202720622
 30
0.0
 11
69.77576336057933
 21
189.3175793869294
 31
0.0
  0
LINE
  5
E463
330
37
100
AcDbEntity
  8
01_表面形状
 62
     3
100
AcDbLine
 10
92.27576336057934
 20
195.1416202720623
 30
0.0
 11
92.27576336057934
 21
189.3175793869294
 31
0.0
  0
LINE
  5
E464
330
37
100
AcDbEntity
  8
01_表面形状
 62
     3
100
AcDbLine
 10
66.02576336057939
 20
189.3175793869293
 30
0.0
 11
66.02576336057939
 21
186.8175793869293
 31
0.0
  0
LINE
  5
E465
330
37
100
AcDbEntity
  8
01_表面形状
 62
     3
100
AcDbLine
 10
96.02576336057939
 20
189.3175793869293
 30
0.0
 11
96.02576336057939
 21
186.8175793869293
 31
0.0
  0
LINE
  5
E466
330
37
100
AcDbEntity
  8
01_表面形状
 62
     3
100
AcDbLine
 10
66.02576336057939
 20
186.8175793869293
 30
0.0
 11
96.02576336057939
 21
186.8175793869294
 31
0.0
  0
LINE
  5
E467
330
37
100
AcDbEntity
  8
01_表面形状
 62
     3
100
AcDbLine
 10
66.02576336057939
 20
189.3175793869293
 30
0.0
 11
96.02576336057939
 21
189.3175793869293
 31
0.0
  0
LINE
  5
E468
330
37
100
AcDbEntity
  8
04_中心線
 62
   110
100
AcDbLine
 10
49.52576336057939
 20
278.7640982151098
 30
0.0
 11
112.5257633605794
 21
278.7640982151098
 31
0.0
  0
LINE
  5
E469
330
37
100
AcDbEntity
  8
04_中心線
 62
   110
100
AcDbLine
 10
81.02576336057939
 20
310.7640982151098
 30
0.0
 11
81.02576336057939
 21
246.7640982151096
 31
0.0
  0
ARC
  5
E46A
330
37
100
AcDbEntity
  8
01_表面形状
 62
     3
100
AcDbCircle
 10
96.58211254668334
 20
294.320447401214
 30
0.0
 40
5.0
100
AcDbArc
 50
352.8145951381785
 51
97.18540486182149
  0
ARC
  5
E46B
330
37
100
AcDbEntity
  8
01_表面形状
 62
     3
100
AcDbCircle
 10
113.4486046729563
 20
292.1940788173671
 30
0.0
 40
12.0
100
AcDbArc
 50
172.8145951381785
 51
232.1854048618207
  0
ARC
  5
E46C
330
37
100
AcDbEntity
  8
01_表面形状
 62
     3
100
AcDbCircle
 10
113.4486046729563
 20
292.1940788173671
 30
0.0
 40
14.5
100
AcDbArc
 50
180.9463175743445
 51
224.0536824256597
  0
ARC
  5
E46D
330
37
100
AcDbEntity
  8
01_表面形状
 62
     3
100
AcDbCircle
 10
98.45065055192129
 20
291.9463447193322
 30
0.0
 40
0.5
100
AcDbArc
 50
0.9463175743315806
 51
135.0000000000089
  0
ARC
  5
E46E
330
37
100
AcDbEntity
  8
01_表面形状
 62
     3
100
AcDbCircle
 10
81.02576336057939
 20
278.7640982151098
 30
0.0
 40
17.0
100
AcDbArc
 50
188.456519335276
 51
216.5434806647294
  0
ARC
  5
E46F
330
37
100
AcDbEntity
  8
01_表面形状
 62
     3
100
AcDbCircle
 10
81.02576336057939
 20
278.7640982151098
 30
0.0
 40
17.0
100
AcDbArc
 50
233.4565193352668
 51
261.5434806647307
  0
ARC
  5
E470
330
37
100
AcDbEntity
  8
01_表面形状
 62
     3
100
AcDbCircle
 10
81.02576336057939
 20
278.7640982151098
 30
0.0
 40
17.0
100
AcDbArc
 50
278.4565193352693
 51
306.5434806647332
  0
ARC
  5
E471
330
37
100
AcDbEntity
  8
01_表面形状
 62
     3
100
AcDbCircle
 10
81.02576336057939
 20
278.7640982151098
 30
0.0
 40
17.0
100
AcDbArc
 50
323.4565193352706
 51
351.543480664724
  0
ARC
  5
E472
330
37
100
AcDbEntity
  8
01_表面形状
 62
     3
100
AcDbCircle
 10
81.02576336057939
 20
278.7640982151098
 30
0.0
 40
17.0
100
AcDbArc
 50
8.456519335275963
 51
36.54348066472941
  0
ARC
  5
E473
330
37
100
AcDbEntity
  8
01_表面形状
 62
     3
100
AcDbCircle
 10
81.02576336057939
 20
278.7640982151098
 30
0.0
 40
17.0
100
AcDbArc
 50
53.45651933526684
 51
81.54348066472733
  0
ARC
  5
E474
330
37
100
AcDbEntity
  8
01_表面形状
 62
     3
100
AcDbCircle
 10
81.02576336057939
 20
278.7640982151098
 30
0.0
 40
17.0
100
AcDbArc
 50
98.45651933526932
 51
126.5434806647331
  0
ARC
  5
E475
330
37
100
AcDbEntity
  8
01_表面形状
 62
     3
100
AcDbCircle
 10
81.02576336057939
 20
278.7640982151098
 30
0.0
 40
17.0
100
AcDbArc
 50
143.4565193352706
 51
171.543480664724
  0
LINE
  5
E476
330
37
100
AcDbEntity
  8
01_表面形状
 62
     3
100
AcDbLine
 10
94.68365226413983
 20
288.8864532127376
 30
0.0
 11
98.09709716132795
 21
292.2998981099255
 31
0.0
  0
LINE
  5
E477
330
37
100
AcDbEntity
  8
01_表面形状
 62
     3
100
AcDbLine
 10
91.14811835820706
 20
292.4219871186704
 30
0.0
 11
94.56156325539495
 21
295.8354320158581
 31
0.0
  0
ARC
  5
E478
330
37
100
AcDbEntity
  8
01_表面形状
 62
     3
100
AcDbCircle
 10
81.02576336057939
 20
278.7640982151098
 30
0.0
 40
13.25833024919774
100
AcDbArc
 50
265.165250676344
 51
334.8347493236551
  0
ARC
  5
E479
330
37
100
AcDbEntity
  8
01_表面形状
 62
     3
100
AcDbCircle
 10
91.66805306952824
 20
273.7640982151098
 30
0.0
 40
1.5
100
AcDbArc
 50
334.8347493236551
 51
78.37408614757464
  0
ARC
  5
E47A
330
37
100
AcDbEntity
  8
01_表面形状
 62
     3
100
AcDbCircle
 10
80.03474552502723
 20
267.0476049727264
 30
0.0
 40
1.5
100
AcDbArc
 50
161.625913852424
 51
265.165250676344
  0
ARC
  5
E47B
330
37
100
AcDbEntity
  8
01_表面形状
 62
     3
100
AcDbCircle
 10
81.02576336057939
 20
278.7640982151098
 30
0.0
 40
13.25833024919774
100
AcDbArc
 50
25.16525067634492
 51
94.83474932365599
  0
ARC
  5
E47C
330
37
100
AcDbEntity
  8
01_表面形状
 62
     3
100
AcDbCircle
 10
91.66805306952824
 20
283.7640982151098
 30
0.0
 40
1.5
100
AcDbArc
 50
281.6259138524253
 51
25.16525067634492
  0
ARC
  5
E47D
330
37
100
AcDbEntity
  8
01_表面形状
 62
     3
100
AcDbCircle
 10
80.034745525027
 20
290.4805914574932
 30
0.0
 40
1.5
100
AcDbArc
 50
94.83474932365599
 51
198.3740861475776
  0
ARC
  5
E47E
330
37
100
AcDbEntity
  8
01_表面形状
 62
     3
100
AcDbCircle
 10
81.02576336057939
 20
278.7640982151098
 30
0.0
 40
13.25833024919774
100
AcDbArc
 50
145.1652506763423
 51
214.8347493236577
  0
ARC
  5
E47F
330
37
100
AcDbEntity
  8
01_表面形状
 62
     3
100
AcDbCircle
 10
71.37449148718281
 20
272.0476049727263
 30
0.0
 40
1.5
100
AcDbArc
 50
214.8347493236577
 51
318.3740861475742
  0
ARC
  5
E480
330
37
100
AcDbEntity
  8
01_表面形状
 62
     3
100
AcDbCircle
 10
71.37449148718269
 20
285.4805914574931
 30
0.0
 40
1.5
100
AcDbArc
 50
41.62591385242756
 51
145.1652506763482
  0
ARC
  5
E481
330
37
100
AcDbEntity
  8
01_表面形状
 62
     3
100
AcDbCircle
 10
94.20800986480173
 20
296.1889854064515
 30
0.0
 40
0.5
100
AcDbArc
 50
314.9999999999905
 51
89.05368242566842
  0
ARC
  5
E482
330
37
100
AcDbEntity
  8
01_表面形状
 62
     3
100
AcDbCircle
 10
94.45574396283644
 20
311.1869395274867
 30
0.0
 40
12.0
100
AcDbArc
 50
217.8145951381814
 51
277.1854048618215
  0
ARC
  5
E483
330
37
100
AcDbEntity
  8
01_表面形状
 62
     3
100
AcDbCircle
 10
94.45574396283644
 20
311.1869395274867
 30
0.0
 40
14.5
100
AcDbArc
 50
225.9463175743449
 51
269.0536824256554
  0
ARC
  5
E484
330
37
100
AcDbEntity
  8
01_表面形状
 62
     3
100
AcDbCircle
 10
84.02576336057961
 20
300.4066100039266
 30
0.0
 40
0.5
100
AcDbArc
 50
45.94631757433081
 51
180.0
  0
LINE
  5
E485
330
37
100
AcDbEntity
  8
01_表面形状
 62
     3
100
AcDbLine
 10
83.52576336057921
 20
295.5792699359101
 30
0.0
 11
83.52576336057939
 21
300.4066100039264
 31
0.0
  0
LINE
  5
E486
330
37
100
AcDbEntity
  8
01_表面形状
 62
     3
100
AcDbLine
 10
78.52576336057939
 20
295.57926993591
 30
0.0
 11
78.52576336057939
 21
300.4066100039264
 31
0.0
  0
ARC
  5
E487
330
37
100
AcDbEntity
  8
01_表面形状
 62
     3
100
AcDbCircle
 10
78.02576336057938
 20
300.4066100039264
 30
0.0
 40
0.5
100
AcDbArc
 50
359.999999999987
 51
134.0536824256692
  0
ARC
  5
E488
330
37
100
AcDbEntity
  8
01_表面形状
 62
     3
100
AcDbCircle
 10
67.59578275832234
 20
311.1869395274867
 30
0.0
 40
12.0
100
AcDbArc
 50
262.8145951381785
 51
322.1854048618186
  0
ARC
  5
E489
330
37
100
AcDbEntity
  8
01_表面形状
 62
     3
100
AcDbCircle
 10
67.59578275832234
 20
311.1869395274867
 30
0.0
 40
14.5
100
AcDbArc
 50
270.9463175743446
 51
314.0536824256551
  0
ARC
  5
E48A
330
37
100
AcDbEntity
  8
01_表面形状
 62
     3
100
AcDbCircle
 10
67.84351685635726
 20
296.1889854064517
 30
0.0
 40
0.5
100
AcDbArc
 50
90.94631757433157
 51
225.0000000000095
  0
LINE
  5
E48B
330
37
100
AcDbEntity
  8
01_表面形状
 62
     3
100
AcDbLine
 10
70.90340836295175
 20
292.4219871186704
 30
0.0
 11
67.48996346576394
 21
295.8354320158584
 31
0.0
  0
LINE
  5
E48C
330
37
100
AcDbEntity
  8
01_表面形状
 62
     3
100
AcDbLine
 10
67.36787445701887
 20
288.8864532127375
 30
0.0
 11
63.95442955983128
 21
292.2998981099255
 31
0.0
  0
ARC
  5
E48D
330
37
100
AcDbEntity
  8
01_表面形状
 62
     3
100
AcDbCircle
 10
63.60087616923795
 20
291.9463447193322
 30
0.0
 40
0.5
100
AcDbArc
 50
44.99999999999107
 51
179.0536824256684
  0
ARC
  5
E48E
330
37
100
AcDbEntity
  8
01_表面形状
 62
     3
100
AcDbCircle
 10
48.60292204820257
 20
292.1940788173671
 30
0.0
 40
12.0
100
AcDbArc
 50
307.8145951381831
 51
7.185404861821447
  0
ARC
  5
E48F
330
37
100
AcDbEntity
  8
01_表面形状
 62
     3
100
AcDbCircle
 10
48.60292204820257
 20
292.1940788173671
 30
0.0
 40
14.5
100
AcDbArc
 50
315.9463175743495
 51
359.0536824256684
  0
ARC
  5
E490
330
37
100
AcDbEntity
  8
01_表面形状
 62
     3
100
AcDbCircle
 10
59.38325157176269
 20
281.7640982151102
 30
0.0
 40
0.5
100
AcDbArc
 50
135.9463175743222
 51
270.0000000000098
  0
LINE
  5
E491
330
37
100
AcDbEntity
  8
01_表面形状
 62
     3
100
AcDbLine
 10
64.21059163977915
 20
281.2640982151098
 30
0.0
 11
59.38325157176291
 21
281.2640982151098
 31
0.0
  0
LINE
  5
E492
330
37
100
AcDbEntity
  8
01_表面形状
 62
     3
100
AcDbLine
 10
64.21059163977915
 20
276.2640982151098
 30
0.0
 11
59.38325157176314
 21
276.2640982151098
 31
0.0
  0
ARC
  5
E493
330
37
100
AcDbEntity
  8
01_表面形状
 62
     3
100
AcDbCircle
 10
59.38325157176291
 20
275.7640982151098
 30
0.0
 40
0.5
100
AcDbArc
 50
89.99999999999023
 51
224.0536824256778
  0
ARC
  5
E494
330
37
100
AcDbEntity
  8
01_表面形状
 62
     3
100
AcDbCircle
 10
48.60292204820257
 20
265.3341176128527
 30
0.0
 40
12.0
100
AcDbArc
 50
352.8145951381785
 51
52.18540486182066
  0
ARC
  5
E495
330
37
100
AcDbEntity
  8
01_表面形状
 62
     3
100
AcDbCircle
 10
48.60292204820257
 20
265.3341176128527
 30
0.0
 40
14.5
100
AcDbArc
 50
0.9463175743315806
 51
44.05368242565048
  0
ARC
  5
E496
330
37
100
AcDbEntity
  8
01_表面形状
 62
     3
100
AcDbCircle
 10
63.60087616923761
 20
265.5818517108877
 30
0.0
 40
0.5
100
AcDbArc
 50
180.9463175743315
 51
315.0000000000227
  0
LINE
  5
E497
330
37
100
AcDbEntity
  8
01_表面形状
 62
     3
100
AcDbLine
 10
67.36787445701887
 20
268.6417432174821
 30
0.0
 11
63.95442955983094
 21
265.2282983202943
 31
0.0
  0
LINE
  5
E498
330
37
100
AcDbEntity
  8
01_表面形状
 62
     3
100
AcDbLine
 10
70.90340836295166
 20
265.1062093115493
 30
0.0
 11
67.48996346576394
 21
261.6927644143617
 31
0.0
  0
ARC
  5
E499
330
37
100
AcDbEntity
  8
01_表面形状
 62
     3
100
AcDbCircle
 10
67.84351685635716
 20
261.3392110237684
 30
0.0
 40
0.5
100
AcDbArc
 50
134.9999999999905
 51
269.0536824256684
  0
ARC
  5
E49A
330
37
100
AcDbEntity
  8
01_表面形状
 62
     3
100
AcDbCircle
 10
67.59578275832234
 20
246.3412569027329
 30
0.0
 40
12.0
100
AcDbArc
 50
37.81459513818138
 51
97.18540486182149
  0
ARC
  5
E49B
330
37
100
AcDbEntity
  8
01_表面形状
 62
     3
100
AcDbCircle
 10
67.59578275832234
 20
246.3412569027329
 30
0.0
 40
14.5
100
AcDbArc
 50
45.94631757434491
 51
89.0536824256554
  0
ARC
  5
E49C
330
37
100
AcDbEntity
  8
01_表面形状
 62
     3
100
AcDbCircle
 10
78.02576336057916
 20
257.1215864262928
 30
0.0
 40
0.5
100
AcDbArc
 50
225.9463175743449
 51
0.0
  0
LINE
  5
E49D
330
37
100
AcDbEntity
  8
01_表面形状
 62
     3
100
AcDbLine
 10
78.52576336057961
 20
261.9489264943096
 30
0.0
 11
78.52576336057961
 21
257.121586426293
 31
0.0
  0
LINE
  5
E49E
330
37
100
AcDbEntity
  8
01_表面形状
 62
     3
100
AcDbLine
 10
83.52576336057962
 20
261.9489264943096
 30
0.0
 11
83.52576336057962
 21
257.1215864262932
 31
0.0
  0
ARC
  5
E49F
330
37
100
AcDbEntity
  8
01_表面形状
 62
     3
100
AcDbCircle
 10
84.02576336057961
 20
257.1215864262932
 30
0.0
 40
0.5
100
AcDbArc
 50
180.0
 51
314.0536824256551
  0
ARC
  5
E4A0
330
37
100
AcDbEntity
  8
01_表面形状
 62
     3
100
AcDbCircle
 10
94.45574396283666
 20
246.3412569027329
 30
0.0
 40
12.0
100
AcDbArc
 50
82.8145951381785
 51
142.1854048618186
  0
ARC
  5
E4A1
330
37
100
AcDbEntity
  8
01_表面形状
 62
     3
100
AcDbCircle
 10
94.45574396283666
 20
246.3412569027329
 30
0.0
 40
14.5
100
AcDbArc
 50
90.94631757434461
 51
134.0536824256692
  0
ARC
  5
E4A2
330
37
100
AcDbEntity
  8
01_表面形状
 62
     3
100
AcDbCircle
 10
94.20800986480173
 20
261.3392110237679
 30
0.0
 40
0.5
100
AcDbArc
 50
270.9463175743316
 51
45.0000000000095
  0
LINE
  5
E4A3
330
37
100
AcDbEntity
  8
01_表面形状
 62
     3
100
AcDbLine
 10
91.14811835820715
 20
265.1062093115493
 30
0.0
 11
94.56156325539508
 21
261.6927644143613
 31
0.0
  0
LINE
  5
E4A4
330
37
100
AcDbEntity
  8
01_表面形状
 62
     3
100
AcDbLine
 10
94.68365226413991
 20
268.6417432174821
 30
0.0
 11
98.09709716132772
 21
265.2282983202941
 31
0.0
  0
ARC
  5
E4A5
330
37
100
AcDbEntity
  8
01_表面形状
 62
     3
100
AcDbCircle
 10
98.45065055192106
 20
265.5818517108875
 30
0.0
 40
0.5
100
AcDbArc
 50
224.9999999999911
 51
359.0536824256684
  0
ARC
  5
E4A6
330
37
100
AcDbEntity
  8
01_表面形状
 62
     3
100
AcDbCircle
 10
113.4486046729563
 20
265.3341176128527
 30
0.0
 40
12.0
100
AcDbArc
 50
127.8145951381793
 51
187.1854048618214
  0
ARC
  5
E4A7
330
37
100
AcDbEntity
  8
01_表面形状
 62
     3
100
AcDbCircle
 10
113.4486046729563
 20
265.3341176128527
 30
0.0
 40
14.5
100
AcDbArc
 50
135.9463175743495
 51
179.0536824256554
  0
ARC
  5
E4A8
330
37
100
AcDbEntity
  8
01_表面形状
 62
     3
100
AcDbCircle
 10
102.6682751493962
 20
275.7640982151098
 30
0.0
 40
0.5
100
AcDbArc
 50
315.9463175743357
 51
90.00000000001303
  0
LINE
  5
E4A9
330
37
100
AcDbEntity
  8
01_表面形状
 62
     3
100
AcDbLine
 10
97.84093508137965
 20
276.2640982151101
 30
0.0
 11
102.6682751493962
 21
276.2640982151101
 31
0.0
  0
LINE
  5
E4AA
330
37
100
AcDbEntity
  8
01_表面形状
 62
     3
100
AcDbLine
 10
97.8409350813796
 20
281.26409821511
 30
0.0
 11
102.668275149396
 21
281.26409821511
 31
0.0
  0
ARC
  5
E4AB
330
37
100
AcDbEntity
  8
01_表面形状
 62
     3
100
AcDbCircle
 10
102.668275149396
 20
281.76409821511
 30
0.0
 40
0.5
100
AcDbArc
 50
269.999999999987
 51
44.05368242566429
  0
ARC
  5
E4AC
330
37
100
AcDbEntity
  8
01_表面形状
 62
     3
100
AcDbCircle
 10
81.02576336057916
 20
300.7640982151098
 30
0.0
 40
5.0
100
AcDbArc
 50
37.81459513818138
 51
142.1854048618186
  0
ARC
  5
E4AD
330
37
100
AcDbEntity
  8
01_表面形状
 62
     3
100
AcDbCircle
 10
65.46941417447545
 20
294.3204474012138
 30
0.0
 40
5.0
100
AcDbArc
 50
82.8145951381785
 51
187.1854048618214
  0
ARC
  5
E4AE
330
37
100
AcDbEntity
  8
01_表面形状
 62
     3
100
AcDbCircle
 10
59.02576336057951
 20
278.7640982151098
 30
0.0
 40
5.0
100
AcDbArc
 50
127.8145951381831
 51
232.1854048618162
  0
ARC
  5
E4AF
330
37
100
AcDbEntity
  8
01_表面形状
 62
     3
100
AcDbCircle
 10
65.46941417447555
 20
263.2077490290058
 30
0.0
 40
5.0
100
AcDbArc
 50
172.8145951381785
 51
277.1854048618215
  0
ARC
  5
E4B0
330
37
100
AcDbEntity
  8
01_表面形状
 62
     3
100
AcDbCircle
 10
81.02576336057962
 20
256.7640982151096
 30
0.0
 40
5.0
100
AcDbArc
 50
217.8145951381814
 51
322.1854048618186
  0
ARC
  5
E4B1
330
37
100
AcDbEntity
  8
01_表面形状
 62
     3
100
AcDbCircle
 10
96.58211254668357
 20
263.2077490290058
 30
0.0
 40
5.0
100
AcDbArc
 50
262.8145951381785
 51
7.185404861821447
  0
ARC
  5
E4B2
330
37
100
AcDbEntity
  8
01_表面形状
 62
     3
100
AcDbCircle
 10
103.0257633605794
 20
278.7640982151103
 30
0.0
 40
5.0
100
AcDbArc
 50
307.8145951381793
 51
52.18540486182066
  0
CIRCLE
  5
E4B3
330
37
100
AcDbEntity
  8
01_表面形状
 62
     3
100
AcDbCircle
 10
81.02576336057939
 20
278.7640982151098
 30
0.0
 40
2.299999999999999
  0
CIRCLE
  5
E4B4
330
37
100
AcDbEntity
  8
01_表面形状
 62
     3
100
AcDbCircle
 10
81.02576336057939
 20
278.7640982151098
 30
0.0
 40
3.0
  0
LINE
  5
E4B5
330
37
100
AcDbEntity
  8
01_表面形状
 62
     3
100
AcDbLine
 10
78.13902036057939
 20
273.7640802151099
 30
0.0
 11
75.25226336057937
 21
278.7640902151098
 31
0.0
  0
LINE
  5
E4B6
330
37
100
AcDbEntity
  8
01_表面形状
 62
     3
100
AcDbLine
 10
86.79927436057937
 20
278.7640802151098
 30
0.0
 11
83.91251736057938
 21
283.7640902151098
 31
0.0
  0
LINE
  5
E4B7
330
37
100
AcDbEntity
  8
01_表面形状
 62
     3
100
AcDbLine
 10
75.25225236057941
 20
278.7640802151098
 30
0.0
 11
78.13900936057939
 21
283.7640902151098
 31
0.0
  0
LINE
  5
E4B8
330
37
100
AcDbEntity
  8
01_表面形状
 62
     3
100
AcDbLine
 10
83.91250636057938
 20
273.7640802151099
 30
0.0
 11
86.7992633605794
 21
278.7640902151098
 31
0.0
  0
LINE
  5
E4B9
330
37
100
AcDbEntity
  8
01_表面形状
 62
     3
100
AcDbLine
 10
78.13901236057938
 20
283.7640982151098
 30
0.0
 11
83.9125143605794
 21
283.7640982151098
 31
0.0
  0
LINE
  5
E4BA
330
37
100
AcDbEntity
  8
01_表面形状
 62
     3
100
AcDbLine
 10
78.13901236057938
 20
273.7640982151098
 30
0.0
 11
83.9125143605794
 21
273.7640982151098
 31
0.0
  0
ARC
  5
E4BB
330
37
100
AcDbEntity
  8
01_表面形状
 62
     3
100
AcDbCircle
 10
81.02576336057939
 20
278.7640982151097
 30
0.0
 40
5.488
100
AcDbArc
 50
125.6548071065613
 51
174.3451949466404
  0
ARC
  5
E4BC
330
37
100
AcDbEntity
  8
01_表面形状
 62
     3
100
AcDbCircle
 10
81.02576336057939
 20
278.7640982151097
 30
0.0
 40
5.488
100
AcDbArc
 50
185.6548930287442
 51
234.3451049180522
  0
ARC
  5
E4BD
330
37
100
AcDbEntity
  8
01_表面形状
 62
     3
100
AcDbCircle
 10
81.02576336057939
 20
278.7640982151097
 30
0.0
 40
5.488
100
AcDbArc
 50
245.6548504826338
 51
294.3451495173662
  0
ARC
  5
E4BE
330
37
100
AcDbEntity
  8
01_表面形状
 62
     3
100
AcDbCircle
 10
81.02576336057939
 20
278.7640982151097
 30
0.0
 40
5.488
100
AcDbArc
 50
305.6548950819478
 51
354.3451069712542
  0
ARC
  5
E4BF
330
37
100
AcDbEntity
  8
01_表面形状
 62
     3
100
AcDbCircle
 10
81.02576336057939
 20
278.7640982151097
 30
0.0
 40
5.488
100
AcDbArc
 50
5.654805053359616
 51
54.34519289343866
  0
ARC
  5
E4C0
330
37
100
AcDbEntity
  8
01_表面形状
 62
     3
100
AcDbCircle
 10
81.02576336057939
 20
278.7640982151097
 30
0.0
 40
5.488
100
AcDbArc
 50
65.6548504826374
 51
114.3451495173626
  0
CIRCLE
  5
E4C1
330
37
100
AcDbEntity
  8
01_表面形状
 62
     3
100
AcDbCircle
 10
81.02576336057939
 20
278.7640982151098
 30
0.0
 40
9.6844496896
  0
LWPOLYLINE
  5
E4C2
330
37
100
AcDbEntity
  8
01_表面形状
 62
     3
100
AcDbPolyline
 90
       10
 70
     1
 43
0.0
 10
74.91275865247764
 20
274.041453521589
 10
75.64267015887782
 20
271.5712086879463
 10
76.19195036257775
 20
272.1492494836308
 42
0.3262597201020667
 10
85.85525767269201
 20
272.1460957574742
 10
86.38497726809857
 20
271.5766656628438
 10
87.14104633195535
 20
274.0390303628818
 10
84.63054141641208
 20
273.4626230291783
 10
85.15542098400624
 20
272.8983957956826
 42
-0.3164916484887445
 10
76.90073096536434
 20
272.8951422007555
 10
77.41700918517961
 20
273.4384530118249
  0
LWPOLYLINE
  5
E4C3
330
37
100
AcDbEntity
  8
01_表面形状
 62
     3
100
AcDbPolyline
 90
      110
 70
     1
 43
0.0
 10
73.43715509012458
 20
276.4015298324006
 10
73.17783217355111
 20
276.2257575778097
 10
73.08615086257396
 20
276.1612375278755
 10
72.96883147717608
 20
276.0590904089255
 10
72.91289006614841
 20
275.9641632801344
 10
72.84684849094379
 20
275.8802697980645
 10
72.79580237062305
 20
275.7842254429412
 10
72.74454252098832
 20
275.6708103374259
 10
72.72510884035387
 20
275.504684834171
 10
72.7257964472609
 20
275.4172661197524
 10
72.72248574689689
 20
275.3242518241558
 10
72.7500569197847
 20
275.2045711013457
 10
72.79781103762548
 20
275.0754366116993
 10
72.84012728612992
 20
274.9737998616179
 10
72.90091376745829
 20
274.872964658903
 10
72.97594932642301
 20
274.7604771256373
 10
73.05983988258515
 20
274.6572009500918
 10
73.18631963242205
 20
274.5637799399254
 10
73.32491040870616
 20
274.4769995326549
 10
73.43613689093348
 20
274.4540086100867
 10
73.53212105200277
 20
274.4227859578908
 10
73.66156714052909
 20
274.4103477245929
 10
73.78603623178936
 20
274.4233187039822
 10
73.90792045207945
 20
274.4471087773186
 10
74.02694194322851
 20
274.4877761388165
 10
74.11930894558941
 20
274.5348394772128
 10
74.20888076650744
 20
274.5978749889951
 10
74.28114835962367
 20
274.6433803382521
 10
74.37904847693414
 20
274.7229493310318
 10
74.4330870860349
 20
274.7820645887681
 10
74.50777468237681
 20
274.8758199049813
 10
74.55662054063771
 20
275.0050379649084
 10
74.59859589509477
 20
275.134374022126
 10
74.59317248786715
 20
275.305636972054
 10
74.51729380272445
 20
276.0501973413449
 10
74.52019055611583
 20
276.1013726778802
 10
74.54220447101647
 20
276.1462858630369
 10
74.57230786526963
 20
276.1806905083944
 10
74.58640735747019
 20
276.1938182369894
 10
74.62349214543275
 20
276.2127138802454
 10
74.67130975493756
 20
276.2284797282585
 10
74.69981072764477
 20
276.2274492780877
 10
74.77203065258243
 20
276.2125208765385
 10
74.80101256873377
 20
276.205184587412
 10
74.84217540039333
 20
276.1681534298928
 10
74.90003695488593
 20
276.1135161645301
 10
74.94742825650405
 20
276.0314674822707
 10
74.97251431209497
 20
275.9580942600222
 10
74.98899948289272
 20
275.8920430512369
 10
74.98943226738726
 20
275.8369867019129
 10
74.96990423816725
 20
275.7924832190312
 10
74.92745478882056
 20
275.7311390841713
 10
74.85316859371943
 20
275.6556865388028
 10
74.66017987795362
 20
275.5198721460415
 10
74.9305690145041
 20
274.989203586073
 10
75.17403808674089
 20
275.1378292990724
 10
75.26755953405388
 20
275.2023441715394
 10
75.37588412643396
 20
275.2770719496516
 10
75.45505163556402
 20
275.3702032234794
 10
75.51270375796343
 20
275.4483459265955
 10
75.55512432843511
 20
275.523962769522
 10
75.62198728661162
 20
275.6374227006461
 10
75.63403503059681
 20
275.7874834721437
 10
75.64060267628502
 20
275.8826766028487
 10
75.63556847469147
 20
275.9771103059968
 10
75.6146582021762
 20
276.0775980071844
 10
75.56388094727356
 20
276.2468270804494
 10
75.52157538161094
 20
276.3502891107353
 10
75.43875670660014
 20
276.4761965231345
 10
75.37281690696272
 20
276.5678244567656
 10
75.29284864664901
 20
276.6466198752845
 10
75.1518659046564
 20
276.7656761833377
 10
75.00884044732095
 20
276.8198504156096
 10
74.87409970330322
 20
276.8433390095317
 10
74.76251828306067
 20
276.8465078605946
 10
74.65024461042509
 20
276.8379346008253
 10
74.52924421030593
 20
276.8143170366671
 10
74.42914995329511
 20
276.784309989481
 10
74.2753568352395
 20
276.7059484818745
 10
74.18788333951551
 20
276.6429715943019
 10
74.10316270766293
 20
276.5819776555348
 10
74.02456388292296
 20
276.5105458323579
 10
73.94190515936441
 20
276.4055433680572
 10
73.86190151726293
 20
276.251490570545
 10
73.84846459505729
 20
276.1107522188719
 10
73.85695892738517
 20
275.9833795618234
 10
73.94074849889887
 20
275.2502545929276
 10
73.93488376593859
 20
275.2196743691464
 10
73.90406581682339
 20
275.1590707575908
 10
73.88085085097748
 20
275.1196772204553
 10
73.83988426199232
 20
275.0943098246324
 10
73.768170511574
 20
275.0448380554699
 10
73.73203718924116
 20
275.0334236079946
 10
73.66714981958216
 20
275.0311936319871
 10
73.62841956232916
 20
275.0437922741225
 10
73.58095539848216
 20
275.0592319860423
 10
73.50642976322496
 20
275.1058974962318
 10
73.47013502288269
 20
275.1397773782836
 10
73.45328656830083
 20
275.1637284243976
 10
73.42377518775703
 20
275.2096852937587
 10
73.38421605125723
 20
275.300986866463
 10
73.35479075447125
 20
275.3729491999304
 10
73.34260800114861
 20
275.411484558763
 10
73.34663555629294
 20
275.4383708070474
 10
73.35204232795479
 20
275.5003167682029
 10
73.36393016449028
 20
275.554975868669
 10
73.43700673519373
 20
275.6580398600075
 10
73.46852939585153
 20
275.6940665602373
 10
73.53250560636865
 20
275.739089348995
 10
73.71387853439262
 20
275.8584294935606
  0
LWPOLYLINE
  5
E4C4
330
37
100
AcDbEntity
  8
01_表面形状
 62
     3
100
AcDbPolyline
 90
       72
 70
     1
 43
0.0
 10
86.51665650782041
 20
275.4303746844663
 10
86.48322466639513
 20
275.5647830549222
 10
86.47863661039497
 20
275.6821037319548
 10
86.47462543848234
 20
275.7846629892683
 10
86.47396945034655
 20
275.9167266036126
 10
86.5078199746078
 20
276.0429379132613
 10
86.54375483651142
 20
276.128385590335
 10
86.58508193175043
 20
276.2215699551567
 10
86.62994107446719
 20
276.3242276398728
 10
86.70004529622321
 20
276.4202780267346
 10
86.77005871279765
 20
276.5198213677324
 10
86.86100021564232
 20
276.6278689976282
 10
86.97746051494585
 20
276.6938832102446
 10
87.06182084800435
 20
276.7303176955486
 10
87.15157709074834
 20
276.7811950136354
 10
87.26522901556103
 20
276.8159836789404
 10
87.38596814448589
 20
276.8401285142546
 10
87.48559476524917
 20
276.8453154744502
 10
87.59043779493003
 20
276.8464626515061
 10
87.70484362576018
 20
276.8325180425143
 10
87.81162094085903
 20
276.8145469154827
 10
87.9018905909486
 20
276.8089604530719
 10
87.97913355100661
 20
276.7924787302766
 10
88.10452914993248
 20
276.7436255270922
 10
88.2094554420218
 20
276.705716638698
 10
88.28752615051337
 20
276.6642057066565
 10
88.39681164750443
 20
276.6314538946661
 10
88.54776995200461
 20
276.5412351197126
 10
88.64715169576243
 20
276.4635487760561
 10
88.71822928491036
 20
276.4184389180268
 10
88.81634219249065
 20
276.3575671545875
 10
88.90431414567649
 20
276.2901400451446
 10
89.0026726873366
 20
276.182974885515
 10
89.13192572215582
 20
276.0403734879046
 10
89.21489281650258
 20
275.9447601685943
 10
89.29226752217926
 20
275.7755712317301
 10
89.33859653096027
 20
275.6445272087352
 10
89.354719718745
 20
275.5517262134969
 10
89.37519493791757
 20
275.4489821864255
 10
89.39286332862707
 20
275.323408541422
 10
89.37523618207411
 20
275.1984483119017
 10
89.33713339760476
 20
275.0930490699136
 10
89.3128476557049
 20
275.0024999467358
 10
89.27633822106532
 20
274.8936625705632
 10
89.21576361655718
 20
274.8010626119889
 10
89.17016166126108
 20
274.7453534562131
 10
89.11626338622165
 20
274.6604092694259
 10
89.07381002546134
 20
274.6163476705863
 10
89.00494633608923
 20
274.5291447418471
 10
88.88249739376556
 20
274.4694462701685
 10
88.79012343435187
 20
274.4234296568019
 10
88.70176987330268
 20
274.3508711213897
 10
88.51142627731462
 20
274.307159244925
 10
88.37395299829779
 20
274.2957290680649
 10
88.25716335005211
 20
274.2944520308004
 10
88.1394694342112
 20
274.3217508810629
 10
88.01738749695607
 20
274.3337345420124
 10
87.90280676049997
 20
274.347701286766
 10
87.78385332005951
 20
274.381579953929
 10
87.67138750049776
 20
274.4244591611083
 10
87.53077900140761
 20
274.4729332838806
 10
87.42540151999595
 20
274.528963484632
 10
87.32376864636638
 20
274.591437131012
 10
87.20074915845691
 20
274.6649585416515
 10
87.09150730526227
 20
274.7315579431647
 10
86.9718780605558
 20
274.8144378884551
 10
86.89220381310553
 20
274.8982399714209
 10
86.82280929197412
 20
274.9845884337551
 10
86.73864151269937
 20
275.0762879698641
 10
86.66803117941299
 20
275.1546959693026
 10
86.60916139576938
 20
275.2640643714329
 10
86.56132444000531
 20
275.352937251583
  0
LWPOLYLINE
  5
E4C5
330
37
100
AcDbEntity
  8
01_表面形状
 62
     3
100
AcDbPolyline
 90
       52
 70
     1
 43
0.0
 10
87.32732862645599
 20
275.5259986692166
 10
87.30112492125988
 20
275.5845606457455
 10
87.28206747360593
 20
275.6287669006675
 10
87.27622087359913
 20
275.6764893641793
 10
87.26791680259486
 20
275.739400896841
 10
87.2776250682187
 20
275.7734520897052
 10
87.30966220748047
 20
275.8595504798314
 10
87.32632550158507
 20
275.9072407590431
 10
87.34786703167861
 20
275.9353589915196
 10
87.40846292225347
 20
276.0062556612318
 10
87.42649558855669
 20
276.0210646156304
 10
87.48336675431676
 20
276.0414784845123
 10
87.56820517182616
 20
276.0753816302647
 10
87.6381866206283
 20
276.0879429364894
 10
87.71512357377071
 20
276.0878266389162
 10
87.83810931083616
 20
276.0585961104264
 10
87.92320493293061
 20
276.03745082444
 10
88.03517667873245
 20
275.9898597855919
 10
88.2576004386019
 20
275.8715949746437
 10
88.33638522381347
 20
275.8190231659018
 10
88.42525418675268
 20
275.7280830145561
 10
88.48873703663661
 20
275.6637857967671
 10
88.52722031735732
 20
275.6096735973015
 10
88.55710644965956
 20
275.5517379984819
 10
88.5769641752462
 20
275.4867071414532
 10
88.59703034607951
 20
275.4315559268547
 10
88.59905478262943
 20
275.3922279968574
 10
88.6010070536172
 20
275.3423115467651
 10
88.59562699373231
 20
275.3243756935801
 10
88.58253394220616
 20
275.2900522064019
 10
88.54818534536844
 20
275.2144227937221
 10
88.51395430118794
 20
275.1582643797481
 10
88.49785690958105
 20
275.1429477535368
 10
88.46328114157552
 20
275.1145528083023
 10
88.4241439509131
 20
275.0970099374236
 10
88.36963445351859
 20
275.0725769466121
 10
88.32311181893635
 20
275.0583362869979
 10
88.22344566063122
 20
275.060806133679
 10
88.15900696281175
 20
275.0507287449774
 10
88.09488736387526
 20
275.0523176439378
 10
87.99685293646314
 20
275.068817051603
 10
87.95062484894799
 20
275.08866223176
 10
87.87313053315575
 20
275.1219288913726
 10
87.7898359431747
 20
275.1529067321519
 10
87.72878331489705
 20
275.1853689904347
 10
87.65510009028469
 20
275.2245470559163
 10
87.57948288530769
 20
275.2714619086795
 10
87.53083570239681
 20
275.3023361623077
 10
87.47947013373311
 20
275.3539064059946
 10
87.40742138561632
 20
275.4145829376791
 10
87.38241461293132
 20
275.4393372590948
 10
87.34007472008318
 20
275.5023189509122
  0
LINE
  5
E4C6
330
37
100
AcDbEntity
  8
01_表面形状
 62
     3
100
AcDbLine
 10
91.97033448682347
 20
282.2948719068925
 30
0.0
 11
90.05096414022654
 21
282.2761227989432
 31
0.0
  0
LINE
  5
E4C7
330
37
100
AcDbEntity
  8
01_表面形状
 62
     3
100
AcDbLine
 10
91.97033448682347
 20
275.2333245233272
 30
0.0
 11
90.05096414022649
 21
275.2520736312764
 31
0.0
  0
LINE
  5
E4C8
330
37
100
AcDbEntity
  8
01_表面形状
 62
     3
100
AcDbLine
 10
72.4957380853597
 20
286.4769879980714
 30
0.0
 11
73.4716604624405
 21
284.8241390726225
 31
0.0
  0
LINE
  5
E4C9
330
37
100
AcDbEntity
  8
01_表面形状
 62
     3
100
AcDbLine
 10
78.61121750955476
 20
290.0077616898542
 30
0.0
 11
79.55466547907085
 21
288.336163656456
 31
0.0
  0
LINE
  5
E4CA
330
37
100
AcDbEntity
  8
01_表面形状
 62
     3
100
AcDbLine
 10
78.61121750955496
 20
267.5204347403654
 30
0.0
 11
79.55466547907113
 21
269.1920327737636
 31
0.0
  0
LINE
  5
E4CB
330
37
100
AcDbEntity
  8
01_表面形状
 62
     3
100
AcDbLine
 10
72.49573808535988
 20
271.051208432148
 30
0.0
 11
73.47166046244066
 21
272.7040573575969
 31
0.0
  0
LINE
  5
E4CC
330
37
100
AcDbEntity
  8
01_表面形状
 62
     3
100
AcDbLine
 10
78.52576336057928
 20
229.9400783861283
 30
0.0
 11
78.52576336057928
 21
225.3175793869293
 31
0.0
  0
ARC
  5
E4CD
330
37
100
AcDbEntity
  8
01_表面形状
 62
     3
100
AcDbCircle
 10
78.02576336057928
 20
225.3175793869293
 30
0.0
 40
0.5
100
AcDbArc
 50
270.0
 51
0.0
  0
LINE
  5
E4CE
330
37
100
AcDbEntity
  8
01_表面形状
 62
     3
100
AcDbLine
 10
88.52576336057939
 20
214.8175793869293
 30
0.0
 11
73.52576336057939
 21
214.8175793869292
 31
0.0
  0
LINE
  5
E4CF
330
37
100
AcDbEntity
  8
01_表面形状
 62
     3
100
AcDbLine
 10
73.02576336057942
 20
220.8175793869293
 30
0.0
 11
73.02576336057938
 21
215.3175793869293
 31
0.0
  0
ARC
  5
E4D0
330
37
100
AcDbEntity
  8
01_表面形状
 62
     3
100
AcDbCircle
 10
73.52576336057939
 20
215.3175793869293
 30
0.0
 40
0.5
100
AcDbArc
 50
180.0
 51
270.0
  0
LINE
  5
E4D1
330
37
100
AcDbEntity
  8
01_表面形状
 62
     3
100
AcDbLine
 10
55.0257633605795
 20
220.8175793869293
 30
0.0
 11
81.02576336057927
 21
220.8175793869293
 31
0.0
  0
ARC
  5
E4D2
330
37
100
AcDbEntity
  8
01_表面形状
 62
     3
100
AcDbCircle
 10
55.0257633605795
 20
221.8175793869293
 30
0.0
 40
1.0
100
AcDbArc
 50
180.0
 51
270.0
  0
LINE
  5
E4D3
330
37
100
AcDbEntity
  8
01_表面形状
 62
     3
100
AcDbLine
 10
59.98969727173983
 20
224.8175793869293
 30
0.0
 11
62.94327174915418
 21
224.8175793869293
 31
0.0
  0
LINE
  5
E4D4
330
37
100
AcDbEntity
  8
01_表面形状
 62
     3
100
AcDbLine
 10
68.29068823764226
 20
224.8175793869293
 30
0.0
 11
78.02576336057928
 21
224.8175793869293
 31
0.0
  0
ARC
  5
E4D5
330
37
100
AcDbEntity
  8
01_表面形状
 62
     3
100
AcDbCircle
 10
61.55362740557961
 20
224.8175793869295
 30
0.0
 40
6.0
100
AcDbArc
 50
52.84876414221217
 51
133.1811650403469
  0
ARC
  5
E4D6
330
37
100
AcDbEntity
  8
01_表面形状
 62
     3
100
AcDbCircle
 10
63.79839904857954
 20
221.4732814176011
 30
0.0
 40
9.996018439199417
100
AcDbArc
 50
129.4433200958756
 51
160.454033283903
  0
LINE
  5
E4D7
330
37
100
AcDbEntity
  8
01_表面形状
 62
     3
100
AcDbLine
 10
54.02576336057951
 20
222.8175793869295
 30
0.0
 11
54.37841732199638
 21
224.8175793869295
 31
0.0
  0
LINE
  5
E4D8
330
37
100
AcDbEntity
  8
01_表面形状
 62
     3
100
AcDbLine
 10
71.56644168758351
 20
228.8175793869295
 30
0.0
 11
78.52576336057928
 21
228.8175793869295
 31
0.0
  0
ARC
  5
E4D9
330
37
100
AcDbEntity
  8
01_表面形状
 62
     3
100
AcDbCircle
 10
81.02576336057939
 20
226.8175793869293
 30
0.0
 40
4.0
100
AcDbArc
 50
51.31781254650645
 51
128.6821874534935
  0
ARC
  5
E4DA
330
37
100
AcDbEntity
  8
01_表面形状
 62
     3
100
AcDbCircle
 10
70.22372854062587
 20
224.3296235530297
 30
0.0
 40
7.296790526548097
100
AcDbArc
 50
132.1090548649599
 51
176.165616994856
  0
ARC
  5
E4DB
330
37
100
AcDbEntity
  8
01_表面形状
 62
     3
100
AcDbCircle
 10
63.26692053359557
 20
221.4879927943659
 30
0.0
 40
5.190203588899719
100
AcDbArc
 50
89.46753917726557
 51
132.079484726731
  0
ARC
  5
E4DC
330
37
100
AcDbEntity
  8
01_表面形状
 62
     3
100
AcDbCircle
 10
59.98969727173983
 20
225.1175793869293
 30
0.0
 40
0.3
100
AcDbArc
 50
132.0794847267344
 51
270.0
  0
ARC
  5
E4DD
330
37
100
AcDbEntity
  8
01_表面形状
 62
     3
100
AcDbCircle
 10
70.63452635916383
 20
222.777541987306
 30
0.0
 40
3.956207044056985
100
AcDbArc
 50
76.37549603260833
 51
132.6995013409754
  0
ARC
  5
E4DE
330
37
100
AcDbEntity
  8
01_表面形状
 62
     3
100
AcDbCircle
 10
68.29068823764226
 20
225.3175793869291
 30
0.0
 40
0.5
100
AcDbArc
 50
132.6995013409754
 51
270.0
  0
LINE
  5
E4DF
330
37
100
AcDbEntity
  8
01_表面形状
 62
     3
100
AcDbLine
 10
78.52576336057928
 20
226.6224227391765
 30
0.0
 11
71.56644168758339
 21
226.6224227391763
 31
0.0
  0
ARC
  5
E4E0
330
37
100
AcDbEntity
  8
01_表面形状
 62
     3
100
AcDbCircle
 10
68.0758385601257
 20
226.7677466813893
 30
0.0
 40
4.047977805536993
100
AcDbArc
 50
30.42329336058815
 51
132.695240904922
  0
LINE
  5
E4E1
330
37
100
AcDbEntity
  8
01_表面形状
 62
     3
100
AcDbLine
 10
54.02576336057951
 20
222.8175793869295
 30
0.0
 11
54.02576336057951
 21
221.8175793869293
 31
0.0
  0
LINE
  5
E4E2
330
37
100
AcDbEntity
  8
01_表面形状
 62
     3
100
AcDbLine
 10
83.5257633605795
 20
229.9400783861283
 30
0.0
 11
83.5257633605795
 21
225.3175793869293
 31
0.0
  0
ARC
  5
E4E3
330
37
100
AcDbEntity
  8
01_表面形状
 62
     3
100
AcDbCircle
 10
84.02576336057951
 20
225.3175793869293
 30
0.0
 40
0.5
100
AcDbArc
 50
180.0
 51
270.0
  0
LINE
  5
E4E4
330
37
100
AcDbEntity
  8
01_表面形状
 62
     3
100
AcDbLine
 10
89.02576336057938
 20
220.8175793869293
 30
0.0
 11
89.02576336057938
 21
215.3175793869293
 31
0.0
  0
ARC
  5
E4E5
330
37
100
AcDbEntity
  8
01_表面形状
 62
     3
100
AcDbCircle
 10
88.52576336057939
 20
215.3175793869293
 30
0.0
 40
0.5
100
AcDbArc
 50
270.0
 51
0.0
  0
LINE
  5
E4E6
330
37
100
AcDbEntity
  8
01_表面形状
 62
     3
100
AcDbLine
 10
107.0257633605792
 20
220.8175793869293
 30
0.0
 11
81.0257633605795
 21
220.8175793869293
 31
0.0
  0
ARC
  5
E4E7
330
37
100
AcDbEntity
  8
01_表面形状
 62
     3
100
AcDbCircle
 10
107.0257633605792
 20
221.8175793869293
 30
0.0
 40
1.0
100
AcDbArc
 50
270.0
 51
0.0
  0
LINE
  5
E4E8
330
37
100
AcDbEntity
  8
01_表面形状
 62
     3
100
AcDbLine
 10
102.0618294494189
 20
224.8175793869293
 30
0.0
 11
99.10825497200461
 21
224.8175793869293
 31
0.0
  0
LINE
  5
E4E9
330
37
100
AcDbEntity
  8
01_表面形状
 62
     3
100
AcDbLine
 10
93.76083848351653
 20
224.8175793869293
 30
0.0
 11
84.02576336057951
 21
224.8175793869293
 31
0.0
  0
ARC
  5
E4EA
330
37
100
AcDbEntity
  8
01_表面形状
 62
     3
100
AcDbCircle
 10
100.4978993155791
 20
224.8175793869295
 30
0.0
 40
6.0
100
AcDbArc
 50
46.8188349596493
 51
127.1512358577872
  0
ARC
  5
E4EB
330
37
100
AcDbEntity
  8
01_表面形状
 62
     3
100
AcDbCircle
 10
98.25312767257925
 20
221.4732814176011
 30
0.0
 40
9.996018439199417
100
AcDbArc
 50
19.545966716097
 51
50.55667990412436
  0
LINE
  5
E4EC
330
37
100
AcDbEntity
  8
01_表面形状
 62
     3
100
AcDbLine
 10
108.0257633605792
 20
222.8175793869295
 30
0.0
 11
107.6731093991624
 21
224.8175793869295
 31
0.0
  0
LINE
  5
E4ED
330
37
100
AcDbEntity
  8
01_表面形状
 62
     3
100
AcDbLine
 10
90.48508503357528
 20
228.8175793869295
 30
0.0
 11
83.5257633605795
 21
228.8175793869295
 31
0.0
  0
ARC
  5
E4EE
330
37
100
AcDbEntity
  8
01_表面形状
 62
     3
100
AcDbCircle
 10
91.8277981805329
 20
224.3296235530297
 30
0.0
 40
7.296790526548097
100
AcDbArc
 50
3.834383005143992
 51
47.89094513504012
  0
ARC
  5
E4EF
330
37
100
AcDbEntity
  8
01_表面形状
 62
     3
100
AcDbCircle
 10
98.78460618756321
 20
221.4879927943659
 30
0.0
 40
5.190203588899719
100
AcDbArc
 50
47.9205152732696
 51
90.53246082273444
  0
ARC
  5
E4F0
330
37
100
AcDbEntity
  8
01_表面形状
 62
     3
100
AcDbCircle
 10
102.0618294494189
 20
225.1175793869293
 30
0.0
 40
0.3
100
AcDbArc
 50
270.0
 51
47.92051527326555
  0
ARC
  5
E4F1
330
37
100
AcDbEntity
  8
01_表面形状
 62
     3
100
AcDbCircle
 10
91.41700036199495
 20
222.777541987306
 30
0.0
 40
3.956207044056985
100
AcDbArc
 50
47.3004986590246
 51
103.6245039673916
  0
ARC
  5
E4F2
330
37
100
AcDbEntity
  8
01_表面形状
 62
     3
100
AcDbCircle
 10
93.76083848351653
 20
225.3175793869291
 30
0.0
 40
0.5
100
AcDbArc
 50
270.0
 51
47.3004986590246
  0
LINE
  5
E4F3
330
37
100
AcDbEntity
  8
01_表面形状
 62
     3
100
AcDbLine
 10
83.5257633605795
 20
226.6224227391765
 30
0.0
 11
90.48508503357538
 21
226.6224227391763
 31
0.0
  0
ARC
  5
E4F4
330
37
100
AcDbEntity
  8
01_表面形状
 62
     3
100
AcDbCircle
 10
93.97568816103307
 20
226.7677466813893
 30
0.0
 40
4.047977805536993
100
AcDbArc
 50
47.30475909507737
 51
149.5767066394138
  0
LINE
  5
E4F5
330
37
100
AcDbEntity
  8
01_表面形状
 62
     3
100
AcDbLine
 10
108.0257633605792
 20
222.8175793869295
 30
0.0
 11
108.0257633605792
 21
221.8175793869293
 31
0.0
  0
LINE
  5
E4F6
330
37
100
AcDbEntity
  8
01_表面形状
 62
     3
100
AcDbLine
 10
73.02576336057938
 20
218.0005750642799
 30
0.0
 11
69.19736636057928
 21
220.8175773869293
 31
0.0
  0
LINE
  5
E4F7
330
37
100
AcDbEntity
  8
01_表面形状
 62
     3
100
AcDbLine
 10
89.02576336057938
 20
218.0005750642799
 30
0.0
 11
92.85416936057927
 21
220.8175733869293
 31
0.0
  0
LINE
  5
E4F8
330
37
100
AcDbEntity
  8
01_表面形状
 62
     3
100
AcDbLine
 10
160.7961863116574
 20
229.9400783861283
 30
0.0
 11
160.7961863116574
 21
225.3175793869293
 31
0.0
  0
ARC
  5
E4F9
330
37
100
AcDbEntity
  8
01_表面形状
 62
     3
100
AcDbCircle
 10
160.2961863116574
 20
225.3175793869293
 30
0.0
 40
0.5
100
AcDbArc
 50
270.0
 51
0.0
  0
LINE
  5
E4FA
330
37
100
AcDbEntity
  8
01_表面形状
 62
     3
100
AcDbLine
 10
170.7961863116575
 20
214.8175793869293
 30
0.0
 11
155.7961863116575
 21
214.8175793869292
 31
0.0
  0
LINE
  5
E4FB
330
37
100
AcDbEntity
  8
01_表面形状
 62
     3
100
AcDbLine
 10
155.2961863116575
 20
220.8175793869293
 30
0.0
 11
155.2961863116575
 21
215.3175793869293
 31
0.0
  0
ARC
  5
E4FC
330
37
100
AcDbEntity
  8
01_表面形状
 62
     3
100
AcDbCircle
 10
155.7961863116575
 20
215.3175793869293
 30
0.0
 40
0.5
100
AcDbArc
 50
180.0
 51
270.0
  0
LINE
  5
E4FD
330
37
100
AcDbEntity
  8
01_表面形状
 62
     3
100
AcDbLine
 10
137.2961863116576
 20
220.8175793869293
 30
0.0
 11
163.2961863116574
 21
220.8175793869293
 31
0.0
  0
ARC
  5
E4FE
330
37
100
AcDbEntity
  8
01_表面形状
 62
     3
100
AcDbCircle
 10
137.2961863116576
 20
221.8175793869293
 30
0.0
 40
1.0
100
AcDbArc
 50
180.0
 51
270.0
  0
LINE
  5
E4FF
330
37
100
AcDbEntity
  8
01_表面形状
 62
     3
100
AcDbLine
 10
142.2601202228179
 20
224.8175793869293
 30
0.0
 11
145.2136947002323
 21
224.8175793869293
 31
0.0
  0
LINE
  5
E500
330
37
100
AcDbEntity
  8
01_表面形状
 62
     3
100
AcDbLine
 10
150.5611111887203
 20
224.8175793869293
 30
0.0
 11
160.2961863116574
 21
224.8175793869293
 31
0.0
  0
ARC
  5
E501
330
37
100
AcDbEntity
  8
01_表面形状
 62
     3
100
AcDbCircle
 10
143.8240503566577
 20
224.8175793869295
 30
0.0
 40
6.0
100
AcDbArc
 50
52.84876414221217
 51
133.1811650403469
  0
ARC
  5
E502
330
37
100
AcDbEntity
  8
01_表面形状
 62
     3
100
AcDbCircle
 10
146.0688219996576
 20
221.4732814176011
 30
0.0
 40
9.996018439199417
100
AcDbArc
 50
129.4433200958756
 51
160.454033283903
  0
LINE
  5
E503
330
37
100
AcDbEntity
  8
01_表面形状
 62
     3
100
AcDbLine
 10
136.2961863116576
 20
222.8175793869295
 30
0.0
 11
136.6488402730745
 21
224.8175793869295
 31
0.0
  0
LINE
  5
E504
330
37
100
AcDbEntity
  8
01_表面形状
 62
     3
100
AcDbLine
 10
153.8368646386616
 20
228.8175793869295
 30
0.0
 11
160.7961863116574
 21
228.8175793869295
 31
0.0
  0
ARC
  5
E505
330
37
100
AcDbEntity
  8
01_表面形状
 62
     3
100
AcDbCircle
 10
163.2961863116575
 20
226.8175793869293
 30
0.0
 40
4.0
100
AcDbArc
 50
51.31781254650645
 51
128.6821874534935
  0
ARC
  5
E506
330
37
100
AcDbEntity
  8
01_表面形状
 62
     3
100
AcDbCircle
 10
152.4941514917039
 20
224.3296235530297
 30
0.0
 40
7.296790526548097
100
AcDbArc
 50
132.1090548649599
 51
176.165616994856
  0
ARC
  5
E507
330
37
100
AcDbEntity
  8
01_表面形状
 62
     3
100
AcDbCircle
 10
145.5373434846737
 20
221.4879927943659
 30
0.0
 40
5.190203588899719
100
AcDbArc
 50
89.46753917726557
 51
132.079484726731
  0
ARC
  5
E508
330
37
100
AcDbEntity
  8
01_表面形状
 62
     3
100
AcDbCircle
 10
142.2601202228179
 20
225.1175793869293
 30
0.0
 40
0.3
100
AcDbArc
 50
132.0794847267344
 51
270.0
  0
ARC
  5
E509
330
37
100
AcDbEntity
  8
01_表面形状
 62
     3
100
AcDbCircle
 10
152.9049493102419
 20
222.777541987306
 30
0.0
 40
3.956207044056985
100
AcDbArc
 50
76.37549603260833
 51
132.6995013409754
  0
ARC
  5
E50A
330
37
100
AcDbEntity
  8
01_表面形状
 62
     3
100
AcDbCircle
 10
150.5611111887203
 20
225.3175793869291
 30
0.0
 40
0.5
100
AcDbArc
 50
132.6995013409754
 51
270.0
  0
LINE
  5
E50B
330
37
100
AcDbEntity
  8
01_表面形状
 62
     3
100
AcDbLine
 10
160.7961863116574
 20
226.6224227391765
 30
0.0
 11
153.8368646386615
 21
226.6224227391763
 31
0.0
  0
ARC
  5
E50C
330
37
100
AcDbEntity
  8
01_表面形状
 62
     3
100
AcDbCircle
 10
150.3462615112038
 20
226.7677466813893
 30
0.0
 40
4.047977805536993
100
AcDbArc
 50
30.42329336058815
 51
132.695240904922
  0
LINE
  5
E50D
330
37
100
AcDbEntity
  8
01_表面形状
 62
     3
100
AcDbLine
 10
136.2961863116576
 20
222.8175793869295
 30
0.0
 11
136.2961863116576
 21
221.8175793869293
 31
0.0
  0
LINE
  5
E50E
330
37
100
AcDbEntity
  8
01_表面形状
 62
     3
100
AcDbLine
 10
165.7961863116576
 20
229.9400783861283
 30
0.0
 11
165.7961863116576
 21
225.3175793869293
 31
0.0
  0
ARC
  5
E50F
330
37
100
AcDbEntity
  8
01_表面形状
 62
     3
100
AcDbCircle
 10
166.2961863116576
 20
225.3175793869293
 30
0.0
 40
0.5
100
AcDbArc
 50
180.0
 51
270.0
  0
LINE
  5
E510
330
37
100
AcDbEntity
  8
01_表面形状
 62
     3
100
AcDbLine
 10
171.2961863116575
 20
220.8175793869293
 30
0.0
 11
171.2961863116575
 21
215.3175793869293
 31
0.0
  0
ARC
  5
E511
330
37
100
AcDbEntity
  8
01_表面形状
 62
     3
100
AcDbCircle
 10
170.7961863116575
 20
215.3175793869293
 30
0.0
 40
0.5
100
AcDbArc
 50
270.0
 51
0.0
  0
LINE
  5
E512
330
37
100
AcDbEntity
  8
01_表面形状
 62
     3
100
AcDbLine
 10
189.2961863116574
 20
220.8175793869293
 30
0.0
 11
163.2961863116576
 21
220.8175793869293
 31
0.0
  0
ARC
  5
E513
330
37
100
AcDbEntity
  8
01_表面形状
 62
     3
100
AcDbCircle
 10
189.2961863116574
 20
221.8175793869293
 30
0.0
 40
1.0
100
AcDbArc
 50
270.0
 51
0.0
  0
LINE
  5
E514
330
37
100
AcDbEntity
  8
01_表面形状
 62
     3
100
AcDbLine
 10
184.332252400497
 20
224.8175793869293
 30
0.0
 11
181.3786779230827
 21
224.8175793869293
 31
0.0
  0
LINE
  5
E515
330
37
100
AcDbEntity
  8
01_表面形状
 62
     3
100
AcDbLine
 10
176.0312614345946
 20
224.8175793869293
 30
0.0
 11
166.2961863116576
 21
224.8175793869293
 31
0.0
  0
ARC
  5
E516
330
37
100
AcDbEntity
  8
01_表面形状
 62
     3
100
AcDbCircle
 10
182.7683222666572
 20
224.8175793869295
 30
0.0
 40
6.0
100
AcDbArc
 50
46.81883495965045
 51
127.1512358577857
  0
ARC
  5
E517
330
37
100
AcDbEntity
  8
01_表面形状
 62
     3
100
AcDbCircle
 10
180.5235506236573
 20
221.4732814176011
 30
0.0
 40
9.996018439199417
100
AcDbArc
 50
19.545966716097
 51
50.5566799041255
  0
LINE
  5
E518
330
37
100
AcDbEntity
  8
01_表面形状
 62
     3
100
AcDbLine
 10
190.2961863116574
 20
222.8175793869295
 30
0.0
 11
189.9435323502405
 21
224.8175793869295
 31
0.0
  0
LINE
  5
E519
330
37
100
AcDbEntity
  8
01_表面形状
 62
     3
100
AcDbLine
 10
172.7555079846534
 20
228.8175793869295
 30
0.0
 11
165.7961863116576
 21
228.8175793869295
 31
0.0
  0
ARC
  5
E51A
330
37
100
AcDbEntity
  8
01_表面形状
 62
     3
100
AcDbCircle
 10
174.098221131611
 20
224.3296235530297
 30
0.0
 40
7.296790526548097
100
AcDbArc
 50
3.834383005143992
 51
47.89094513504012
  0
ARC
  5
E51B
330
37
100
AcDbEntity
  8
01_表面形状
 62
     3
100
AcDbCircle
 10
181.0550291386413
 20
221.4879927943659
 30
0.0
 40
5.190203588899719
100
AcDbArc
 50
47.92051527327075
 51
90.53246082273444
  0
ARC
  5
E51C
330
37
100
AcDbEntity
  8
01_表面形状
 62
     3
100
AcDbCircle
 10
184.332252400497
 20
225.1175793869293
 30
0.0
 40
0.3
100
AcDbArc
 50
270.0
 51
47.92051527326555
  0
ARC
  5
E51D
330
37
100
AcDbEntity
  8
01_表面形状
 62
     3
100
AcDbCircle
 10
173.687423313073
 20
222.777541987306
 30
0.0
 40
3.956207044056985
100
AcDbArc
 50
47.3004986590246
 51
103.6245039673916
  0
ARC
  5
E51E
330
37
100
AcDbEntity
  8
01_表面形状
 62
     3
100
AcDbCircle
 10
176.0312614345946
 20
225.3175793869291
 30
0.0
 40
0.5
100
AcDbArc
 50
270.0
 51
47.3004986590246
  0
LINE
  5
E51F
330
37
100
AcDbEntity
  8
01_表面形状
 62
     3
100
AcDbLine
 10
165.7961863116576
 20
226.6224227391765
 30
0.0
 11
172.7555079846535
 21
226.6224227391763
 31
0.0
  0
ARC
  5
E520
330
37
100
AcDbEntity
  8
01_表面形状
 62
     3
100
AcDbCircle
 10
176.2461111121112
 20
226.7677466813893
 30
0.0
 40
4.047977805536993
100
AcDbArc
 50
47.3047590950762
 51
149.5767066394138
  0
LINE
  5
E521
330
37
100
AcDbEntity
  8
01_表面形状
 62
     3
100
AcDbLine
 10
190.2961863116574
 20
222.8175793869295
 30
0.0
 11
190.2961863116574
 21
221.8175793869293
 31
0.0
  0
LINE
  5
E522
330
37
100
AcDbEntity
  8
01_表面形状
 62
     3
100
AcDbLine
 10
155.2961863116575
 20
218.0005750642799
 30
0.0
 11
151.4677893116574
 21
220.8175773869293
 31
0.0
  0
LINE
  5
E523
330
37
100
AcDbEntity
  8
01_表面形状
 62
     3
100
AcDbLine
 10
171.2961863116575
 20
218.0005750642799
 30
0.0
 11
175.1245923116574
 21
220.8175733869293
 31
0.0
  0
TEXT
  5
E524
330
37
100
AcDbEntity
  8
12_文字
 62
   110
100
AcDbText
 10
58.71487271751522
 20
107.7538716684481
 30
0.0
 40
4.167180999999999
  1
        GATE VALVE  1/2
 41
0.9905280000000001
  7
MX_NOTE_STANDARD
 11
58.71487271751522
 21
109.8374621684481
 31
0.0
100
AcDbText
 73
     2
  0
TEXT
  5
E525
330
37
100
AcDbEntity
  8
12_文字
 62
   110
100
AcDbText
 10
58.66067071751524
 20
91.75387166844815
 30
0.0
 40
4.167180999999999
  1
TOA
 41
0.9124859999999999
  7
MX_NOTE_STANDARD
 11
58.66067071751524
 21
93.83746216844816
 31
0.0
100
AcDbText
 73
     2
  0
TEXT
  5
E526
330
37
100
AcDbEntity
  8
12_文字
 62
   110
100
AcDbText
 10
58.72658971751525
 20
99.75387166844816
 30
0.0
 40
4.167180999999999
  1
FIG   FR1/2
 41
1.007398
  7
MX_NOTE_STANDARD
 11
58.72658971751525
 21
101.8374621684481
 31
0.0
100
AcDbText
 73
     2
  0
TEXT
  5
E527
330
37
100
AcDbEntity
  8
12_文字
 62
   110
100
AcDbText
 10
58.66067071751524
 20
115.7538716684481
 30
0.0
 40
4.167180999999999
  1
NAME  CLASS 125 BRASS
 41
0.9124859999999999
  7
MX_NOTE_STANDARD
 11
58.66067071751524
 21
117.8374621684481
 31
0.0
100
AcDbText
 73
     2
  0
LINE
  5
E528
330
37
100
AcDbEntity
  8
01_表面形状
 62
     3
100
AcDbLine
 10
95.0257633605794
 20
167.7673486284217
 30
0.0
 11
102.0257633605794
 21
167.7673486284217
 31
0.0
  0
LINE
  5
E529
330
37
100
AcDbEntity
  8
01_表面形状
 62
     3
100
AcDbLine
 10
95.0257633605794
 20
147.8678101454369
 30
0.0
 11
102.0257633605794
 21
147.867810145437
 31
0.0
  0
LINE
  5
E52A
330
37
100
AcDbEntity
  8
01_表面形状
 62
     3
100
AcDbLine
 10
73.52574036057936
 20
200.5246556687797
 30
0.0
 11
73.52574036057934
 21
197.2067078174549
 31
0.0
  0
LINE
  5
E52B
330
37
100
AcDbEntity
  8
01_表面形状
 62
     3
100
AcDbLine
 10
73.52574036057936
 20
200.5246556687797
 30
0.0
 11
73.52574036057934
 21
197.2067078174549
 31
0.0
  0
ARC
  5
E52C
330
37
100
AcDbEntity
  8
01_表面形状
 62
     3
100
AcDbCircle
 10
72.52574036057933
 20
197.2067078174549
 30
0.0
 40
1.0
100
AcDbArc
 50
290.0000000000001
 51
0.0
  0
LINE
  5
E52D
330
37
100
AcDbEntity
  8
01_表面形状
 62
     3
100
AcDbLine
 10
73.52574036057936
 20
197.7705575300018
 30
0.0
 11
88.52575636057935
 21
197.7705575300018
 31
0.0
  0
LINE
  5
E52E
330
37
100
AcDbEntity
  8
01_表面形状
 62
     3
100
AcDbLine
 10
87.87575636057935
 20
200.5246556687797
 30
0.0
 11
87.87575636057935
 21
197.7705575300019
 31
0.0
  0
LINE
  5
E52F
330
37
100
AcDbEntity
  8
01_表面形状
 62
     3
100
AcDbLine
 10
88.52575636057935
 20
200.5246556687797
 30
0.0
 11
88.52575636057935
 21
197.2066283037654
 31
0.0
  0
LINE
  5
E530
330
37
100
AcDbEntity
  8
01_表面形状
 62
     3
100
AcDbLine
 10
88.52575636057935
 20
200.5246556687797
 30
0.0
 11
88.52575636057935
 21
197.2066283037654
 31
0.0
  0
LINE
  5
E531
330
37
100
AcDbEntity
  8
01_表面形状
 62
     3
100
AcDbLine
 10
74.17575536057936
 20
200.5246556687797
 30
0.0
 11
74.17575536057933
 21
197.7705575300019
 31
0.0
  0
LINE
  5
E532
330
37
100
AcDbEntity
  8
01_表面形状
 62
     3
100
AcDbLine
 10
76.12574986057947
 20
208.5246556687797
 30
0.0
 11
76.12574986057942
 21
200.5246556687797
 31
0.0
  0
LINE
  5
E533
330
37
100
AcDbEntity
  8
01_表面形状
 62
     3
100
AcDbLine
 10
85.72576086057935
 20
208.5246556687797
 30
0.0
 11
85.72576086057935
 21
200.5246556687797
 31
0.0
  0
LINE
  5
E534
330
37
100
AcDbEntity
  8
01_表面形状
 62
     3
100
AcDbLine
 10
71.62576286057941
 20
208.5246556687797
 30
0.0
 11
71.62576286057941
 21
200.5246556687797
 31
0.0
  0
LINE
  5
E535
330
37
100
AcDbEntity
  8
01_表面形状
 62
     3
100
AcDbLine
 10
90.4257638605793
 20
208.5246556687797
 30
0.0
 11
90.42576386057934
 21
200.5246556687797
 31
0.0
  0
LINE
  5
E536
330
37
100
AcDbEntity
  8
01_表面形状
 62
     3
100
AcDbLine
 10
71.62576286057941
 20
200.5246556687797
 30
0.0
 11
90.42576386057934
 21
200.5246556687797
 31
0.0
  0
LINE
  5
E537
330
37
100
AcDbEntity
  8
01_表面形状
 62
     3
100
AcDbLine
 10
71.62576286057941
 20
208.5246556687797
 30
0.0
 11
90.4257638605793
 21
208.5246556687796
 31
0.0
  0
LINE
  5
E538
330
37
100
AcDbEntity
  8
01_表面形状
 62
     3
100
AcDbLine
 10
155.7961663318708
 20
200.5246556687797
 30
0.0
 11
155.7961569123981
 21
197.2067078174549
 31
0.0
  0
LINE
  5
E539
330
37
100
AcDbEntity
  8
01_表面形状
 62
     3
100
AcDbLine
 10
155.7961727311323
 20
200.5246556687797
 30
0.0
 11
155.7961633116555
 21
197.2067063979822
 31
0.0
  0
LINE
  5
E53A
330
37
100
AcDbEntity
  8
01_表面形状
 62
     3
100
AcDbLine
 10
170.1461923116575
 20
200.5246556687796
 30
0.0
 11
170.1461923116575
 21
197.7705575300019
 31
0.0
  0
LINE
  5
E53B
330
37
100
AcDbEntity
  8
01_表面形状
 62
     3
100
AcDbLine
 10
156.4461889123981
 20
200.5246556687796
 30
0.0
 11
156.4461889123981
 21
197.7705575300019
 31
0.0
  0
LINE
  5
E53C
330
37
100
AcDbEntity
  8
01_表面形状
 62
     3
100
AcDbLine
 10
170.7962013116576
 20
200.5246556687797
 30
0.0
 11
170.7962013116576
 21
197.2001416871802
 31
0.0
  0
LINE
  5
E53D
330
37
100
AcDbEntity
  8
01_表面形状
 62
     3
100
AcDbLine
 10
170.7962013116576
 20
200.5246556687797
 30
0.0
 11
170.7962013116576
 21
197.2001416871802
 31
0.0
  0
LINE
  5
E53E
330
37
100
AcDbEntity
  8
01_表面形状
 62
     3
100
AcDbLine
 10
153.2961863116574
 20
195.1416202720623
 30
0.0
 11
173.2961863116575
 21
195.1416202720623
 31
0.0
  0
LINE
  5
E53F
330
37
100
AcDbEntity
  8
01_表面形状
 62
     3
100
AcDbLine
 10
75.54093536057931
 20
195.1416202720622
 30
0.0
 11
75.54093536057933
 21
189.3175793869293
 31
0.0
  0
LINE
  5
E540
330
37
100
AcDbEntity
  8
01_表面形状
 62
     3
100
AcDbLine
 10
171.7961863116574
 20
208.5246556687797
 30
0.0
 11
171.7961863116575
 21
200.5246556687796
 31
0.0
  0
LINE
  5
E541
330
37
100
AcDbEntity
  8
01_表面形状
 62
     3
100
AcDbLine
 10
154.7961863116574
 20
208.5246556687797
 30
0.0
 11
154.7961863116575
 21
200.5246556687796
 31
0.0
  0
LINE
  5
E542
330
37
100
AcDbEntity
  8
01_表面形状
 62
     3
100
AcDbLine
 10
163.2961863116574
 20
208.5246556687797
 30
0.0
 11
163.2961863116575
 21
200.5246556687796
 31
0.0
  0
LINE
  5
E543
330
37
100
AcDbEntity
  8
01_表面形状
 62
     3
100
AcDbLine
 10
154.7961863116575
 20
208.5246556687797
 30
0.0
 11
171.7961863116575
 21
208.5246556687797
 31
0.0
  0
LINE
  5
E544
330
37
100
AcDbEntity
  8
01_表面形状
 62
     3
100
AcDbLine
 10
86.51059136057932
 20
195.1416202720622
 30
0.0
 11
86.51059136057932
 21
189.3175793869293
 31
0.0
  0
LINE
  5
E545
330
37
100
AcDbEntity
  8
01_表面形状
 62
     3
100
AcDbLine
 10
154.7961863116575
 20
200.5246556687796
 30
0.0
 11
171.7961863116575
 21
200.5246556687796
 31
0.0
  0
LINE
  5
E546
330
37
100
AcDbEntity
  8
01_表面形状
 62
     3
100
AcDbLine
 10
159.4961863116575
 20
214.8175793869292
 30
0.0
 11
159.4961863116575
 21
208.5246556687797
 31
0.0
  0
LINE
  5
E547
330
37
100
AcDbEntity
  8
01_表面形状
 62
     3
100
AcDbLine
 10
69.7757633605793
 20
195.1416202720622
 30
0.0
 11
92.27576336057936
 21
195.1416202720623
 31
0.0
  0
LINE
  5
E548
330
37
100
AcDbEntity
  8
01_表面形状
 62
     3
100
AcDbLine
 10
173.2961863116575
 20
195.5965830648951
 30
0.0
 11
173.2961863116575
 21
189.3175793869293
 31
0.0
  0
LINE
  5
E549
330
37
100
AcDbEntity
  8
01_表面形状
 62
     3
100
AcDbLine
 10
163.2961863116575
 20
195.1416202720623
 30
0.0
 11
163.2961863116575
 21
189.3175793869293
 31
0.0
  0
LINE
  5
E54A
330
37
100
AcDbEntity
  8
01_表面形状
 62
     3
100
AcDbLine
 10
167.0961863116576
 20
214.8175793869293
 30
0.0
 11
167.0961863116575
 21
208.5246556687797
 31
0.0
  0
LINE
  5
E54B
330
37
100
AcDbEntity
  8
01_表面形状
 62
     3
100
AcDbLine
 10
155.7961585131367
 20
197.7705575300019
 30
0.0
 11
170.7962013116576
 21
197.7705575300019
 31
0.0
  0
LINE
  5
E54C
330
37
100
AcDbEntity
  8
01_表面形状
 62
     3
100
AcDbLine
 10
69.77576336057933
 20
195.1416202720622
 30
0.0
 11
72.867760503905
 21
196.267015196669
 31
0.0
  0
ARC
  5
E54D
330
37
100
AcDbEntity
  8
01_表面形状
 62
     3
100
AcDbCircle
 10
89.52583932204323
 20
197.2067768381784
 30
0.0
 40
1.000082972494188
100
AcDbArc
 50
180.0085096861437
 51
249.9985012083782
  0
LINE
  5
E54E
330
37
100
AcDbEntity
  8
01_表面形状
 62
     3
100
AcDbLine
 10
92.27576336057936
 20
195.1416202720623
 30
0.0
 11
89.18376621725366
 21
196.267015196669
 31
0.0
  0
ARC
  5
E54F
330
37
100
AcDbEntity
  8
01_表面形状
 62
     3
100
AcDbCircle
 10
154.7961569123981
 20
197.2067078174549
 30
0.0
 40
1.0
100
AcDbArc
 50
290.0000000000001
 51
0.0
  0
ARC
  5
E550
330
37
100
AcDbEntity
  8
01_表面形状
 62
     3
100
AcDbCircle
 10
171.7962622731214
 20
197.2067768381784
 30
0.0
 40
1.000082972494188
100
AcDbArc
 50
180.0085096861437
 51
249.9985012083782
  0
LINE
  5
E551
330
37
100
AcDbEntity
  8
01_表面形状
 62
     3
100
AcDbLine
 10
173.2961863116575
 20
195.5965830648951
 30
0.0
 11
171.4541891683319
 21
196.267015196669
 31
0.0
  0
LINE
  5
E552
330
37
100
AcDbEntity
  8
01_表面形状
 62
     3
100
AcDbLine
 10
153.2961863116575
 20
195.5965830648951
 30
0.0
 11
153.2961863116575
 21
189.3175793869293
 31
0.0
  0
LINE
  5
E553
330
37
100
AcDbEntity
  8
01_表面形状
 62
     3
100
AcDbLine
 10
153.2961863116575
 20
195.596585394035
 30
0.0
 11
155.1381770557238
 21
196.267015196669
 31
0.0
  0
ARC
  5
E554
330
37
100
AcDbEntity
  8
01_表面形状
 62
     3
100
AcDbCircle
 10
68.02576336057938
 20
174.0175793869293
 30
0.0
 40
2.0
100
AcDbArc
 50
0.0
 51
90.0
  0
LINE
  5
E555
330
37
100
AcDbEntity
  8
01_表面形状
 62
     3
100
AcDbLine
 10
76.20191156688441
 20
161.4162978823294
 30
0.0
 11
79.1818019597348
 21
161.4119825358518
 31
0.0
  0
ARC
  5
E556
330
37
100
AcDbEntity
  8
01_表面形状
 62
     3
100
AcDbCircle
 10
79.18137082557667
 20
161.1142700480257
 30
0.0
 40
0.2977128
100
AcDbArc
 50
345.0000000000056
 51
89.91702682484527
1001
GENIUS_GENOBJ-N-FIL_13
1002
{
1000
OWNER
1000
GEN
1002
}
1001
GENIUS_GENODEF_13
1002
{
1000
HIER
1070
     0
1002
}
1002
{
1000
MANEDIT
1070
     0
1002
}
1002
{
1000
NOSEL
1070
     0
1002
}
1002
{
1000
BEHIND
1070
     0
1002
}
1002
{
1000
OTHER
1070
     0
1002
}
1002
{
1000
REACTOR
1002
}
  0
LINE
  5
E557
330
37
100
AcDbEntity
  8
01_表面形状
 62
     3
100
AcDbLine
 10
78.16243630676843
 20
160.5166182584815
 30
0.0
 11
79.09932932968456
 21
160.5166182584815
 31
0.0
  0
ARC
  5
E558
330
37
100
AcDbEntity
  8
01_表面形状
 62
     3
100
AcDbCircle
 10
76.12155542399875
 20
160.8165114664291
 30
0.0
 40
0.29989320795
100
AcDbArc
 50
165.0000000000055
 51
270.0
  0
ARC
  5
E559
330
37
100
AcDbEntity
  8
01_表面形状
 62
     3
100
AcDbCircle
 10
76.97899871685274
 20
158.1174725948797
 30
0.0
 40
0.29989320795
100
AcDbArc
 50
270.0
 51
345.0000000000056
  0
ARC
  5
E55A
330
37
100
AcDbEntity
  8
01_表面形状
 62
     3
100
AcDbCircle
 10
76.79547546488436
 20
158.1174725948797
 30
0.0
 40
0.29989320795
100
AcDbArc
 50
165.0000000000055
 51
270.0
  0
LINE
  5
E55B
330
37
100
AcDbEntity
  8
01_表面形状
 62
     3
100
AcDbLine
 10
76.79547546488436
 20
157.8175793869293
 30
0.0
 11
76.97899871685274
 21
157.8175793869293
 31
0.0
  0
LINE
  5
E55C
330
37
100
AcDbEntity
  8
01_表面形状
 62
     3
100
AcDbLine
 10
76.12155542399875
 20
160.5166182584815
 30
0.0
 11
76.73702387537048
 21
160.5166182584815
 31
0.0
  0
LINE
  5
E55D
330
37
100
AcDbEntity
  8
01_表面形状
 62
     3
100
AcDbLine
 10
77.0266984700587
 20
160.1391069768158
 30
0.0
 11
76.50580087019659
 21
158.1950906685936
 31
0.0
  0
ARC
  5
E55E
330
37
100
AcDbEntity
  8
01_表面形状
 62
     3
100
AcDbCircle
 10
78.16243630676843
 20
160.2167250505293
 30
0.0
 40
0.29989320795
100
AcDbArc
 50
90.0
 51
165.0000000000055
  0
ARC
  5
E55F
330
37
100
AcDbEntity
  8
01_表面形状
 62
     3
100
AcDbCircle
 10
76.73702387537048
 20
160.2167250505293
 30
0.0
 40
0.29989320795
100
AcDbArc
 50
345.0000000000056
 51
90.0
  0
LINE
  5
E560
330
37
100
AcDbEntity
  8
01_表面形状
 62
     3
100
AcDbLine
 10
77.87276171208066
 20
160.2943431242436
 30
0.0
 11
77.26867331154051
 21
158.0398545211658
 31
0.0
  0
LINE
  5
E561
330
37
100
AcDbEntity
  8
01_表面形状
 62
     3
100
AcDbLine
 10
75.91223697219664
 20
161.1940227480939
 30
0.0
 11
75.83188082931053
 21
160.8941295401457
 31
0.0
  0
ARC
  5
E562
330
37
100
AcDbEntity
  8
01_表面形状
 62
     3
100
AcDbCircle
 10
76.20191156688441
 20
161.11640467438
 30
0.0
 40
0.29989320795
100
AcDbArc
 50
90.0
 51
165.0000000000055
  0
ARC
  5
E563
330
37
100
AcDbEntity
  8
01_表面形状
 62
     3
100
AcDbCircle
 10
85.68371990330239
 20
160.2167250505293
 30
0.0
 40
1.199572831799999
100
AcDbArc
 50
0.0
 51
90.0
  0
ARC
  5
E564
330
37
100
AcDbEntity
  8
01_表面形状
 62
     3
100
AcDbCircle
 10
86.26446060331852
 20
158.1174725948797
 30
0.0
 40
0.29989320795
100
AcDbArc
 50
194.4775121859299
 51
270.0
  0
ARC
  5
E565
330
37
100
AcDbEntity
  8
01_表面形状
 62
     3
100
AcDbCircle
 10
85.1693125622204
 20
160.2167250505293
 30
0.0
 40
1.199572831799999
100
AcDbArc
 50
90.0
 51
165.0000000000055
  0
ARC
  5
E566
330
37
100
AcDbEntity
  8
01_表面形状
 62
     3
100
AcDbCircle
 10
79.09932932968456
 20
160.8165114664291
 30
0.0
 40
0.29989320795
100
AcDbArc
 50
270.0
 51
345.0000000000056
  0
LINE
  5
E567
330
37
100
AcDbEntity
  8
01_表面形状
 62
     3
100
AcDbLine
 10
79.97883519360846
 20
160.0667784465557
 30
0.0
 11
82.95660909929244
 21
160.0667784465557
 31
0.0
  0
LINE
  5
E568
330
37
100
AcDbEntity
  8
01_表面形状
 62
     3
100
AcDbLine
 10
79.53687640773648
 20
157.8175793869293
 30
0.0
 11
82.51465031342229
 21
157.8175793869293
 31
0.0
  0
ARC
  5
E569
330
37
100
AcDbEntity
  8
01_表面形状
 62
     3
100
AcDbCircle
 10
79.53687640773648
 20
158.1174725948797
 30
0.0
 40
0.29989320795
100
AcDbArc
 50
165.0000000000055
 51
270.0
  0
ARC
  5
E56A
330
37
100
AcDbEntity
  8
01_表面形状
 62
     3
100
AcDbCircle
 10
80.58882750663668
 20
158.5673124068055
 30
0.0
 40
0.29989320795
100
AcDbArc
 50
165.0000000000055
 51
270.0
  0
LINE
  5
E56B
330
37
100
AcDbEntity
  8
01_表面形状
 62
     3
100
AcDbLine
 10
80.5000432691644
 20
159.3946635003956
 30
0.0
 11
80.29915291195072
 21
158.6449304805194
 31
0.0
  0
ARC
  5
E56C
330
37
100
AcDbEntity
  8
01_表面形状
 62
     3
100
AcDbCircle
 10
79.97883519360846
 20
159.7668852386057
 30
0.0
 40
0.29989320795
100
AcDbArc
 50
90.0
 51
165.0000000000055
  0
LINE
  5
E56D
330
37
100
AcDbEntity
  8
01_表面形状
 62
     3
100
AcDbLine
 10
79.68916059892023
 20
159.8445033123196
 30
0.0
 11
79.24720181304872
 21
158.1950906685936
 31
0.0
  0
ARC
  5
E56E
330
37
100
AcDbEntity
  8
01_表面形状
 62
     3
100
AcDbCircle
 10
80.78971786385034
 20
159.3170454266795
 30
0.0
 40
0.29989320795
100
AcDbArc
 50
90.0
 51
165.0000000000055
  0
LINE
  5
E56F
330
37
100
AcDbEntity
  8
01_表面形状
 62
     3
100
AcDbLine
 10
80.78971786385034
 20
159.6169386346294
 30
0.0
 11
81.90465800039271
 21
159.6169386346294
 31
0.0
  0
LINE
  5
E570
330
37
100
AcDbEntity
  8
01_表面形状
 62
     3
100
AcDbLine
 10
82.19433259508049
 20
159.2394273529656
 30
0.0
 11
81.99344223786681
 21
158.4896943330916
 31
0.0
  0
ARC
  5
E571
330
37
100
AcDbEntity
  8
01_表面形状
 62
     3
100
AcDbCircle
 10
81.70376764317859
 20
158.5673124068055
 30
0.0
 40
0.29989320795
100
AcDbArc
 50
270.0
 51
345.0000000000056
  0
LINE
  5
E572
330
37
100
AcDbEntity
  8
01_表面形状
 62
     3
100
AcDbLine
 10
80.58882750663668
 20
158.2674191988556
 30
0.0
 11
81.70376764317859
 21
158.2674191988556
 31
0.0
  0
ARC
  5
E573
330
37
100
AcDbEntity
  8
01_表面形状
 62
     3
100
AcDbCircle
 10
81.90465800039271
 20
159.3170454266795
 30
0.0
 40
0.29989320795
100
AcDbArc
 50
345.0000000000056
 51
90.0
  0
ARC
  5
E574
330
37
100
AcDbEntity
  8
01_表面形状
 62
     3
100
AcDbCircle
 10
83.98587497230471
 20
158.1174725948797
 30
0.0
 40
0.29989320795
100
AcDbArc
 50
270.0
 51
345.0000000000056
  0
ARC
  5
E575
330
37
100
AcDbEntity
  8
01_表面形状
 62
     3
100
AcDbCircle
 10
82.51465031342229
 20
158.1174725948797
 30
0.0
 40
0.29989320795
100
AcDbArc
 50
270.0
 51
345.0000000000056
  0
LINE
  5
E576
330
37
100
AcDbEntity
  8
01_表面形状
 62
     3
100
AcDbLine
 10
83.67159114729464
 20
157.8175793869293
 30
0.0
 11
83.98587497230471
 21
157.8175793869293
 31
0.0
  0
ARC
  5
E577
330
37
100
AcDbEntity
  8
01_表面形状
 62
     3
100
AcDbCircle
 10
84.56664149057667
 20
157.9675259909056
 30
0.0
 40
0.29989320795
100
AcDbArc
 50
90.0
 51
165.0000000000055
  0
ARC
  5
E578
330
37
100
AcDbEntity
  8
01_表面形状
 62
     3
100
AcDbCircle
 10
82.95660909929244
 20
159.7668852386057
 30
0.0
 40
0.29989320795
100
AcDbArc
 50
345.0000000000056
 51
90.0
  0
LINE
  5
E579
330
37
100
AcDbEntity
  8
01_表面形状
 62
     3
100
AcDbLine
 10
84.27696689588845
 20
158.0451440646195
 30
0.0
 11
84.27554956699248
 21
158.0398545211658
 31
0.0
  0
LINE
  5
E57A
330
37
100
AcDbEntity
  8
01_表面形状
 62
     3
100
AcDbLine
 10
83.24628369398068
 20
159.6892671648914
 30
0.0
 11
82.8043249081087
 21
158.0398545211658
 31
0.0
  0
LINE
  5
E57B
330
37
100
AcDbEntity
  8
01_表面形状
 62
     3
100
AcDbLine
 10
84.01061418346841
 20
160.5271973453876
 30
0.0
 11
83.38474158616453
 21
158.1914090131834
 31
0.0
  0
ARC
  5
E57C
330
37
100
AcDbEntity
  8
01_表面形状
 62
     3
100
AcDbCircle
 10
83.67159114729464
 20
158.1145479049294
 30
0.0
 40
0.296968518
100
AcDbArc
 50
164.999999999992
 51
270.0
1001
GENIUS_GENODEF_13
1002
{
1000
HIER
1070
     0
1002
}
1002
{
1000
MANEDIT
1070
     0
1002
}
1002
{
1000
NOSEL
1070
     0
1002
}
1002
{
1000
BEHIND
1070
     0
1002
}
1002
{
1000
OTHER
1070
     0
1002
}
1002
{
1000
REACTOR
1002
}
1001
GENIUS_GENOBJ-N-FIL_13
1002
{
1000
OWNER
1000
GEN
1002
}
  0
LINE
  5
E57D
330
37
100
AcDbEntity
  8
01_表面形状
 62
     3
100
AcDbLine
 10
85.1693125622204
 20
160.5166182584815
 30
0.0
 11
85.68371990330239
 21
160.5166182584815
 31
0.0
  0
ARC
  5
E57E
330
37
100
AcDbEntity
  8
01_表面形状
 62
     3
100
AcDbCircle
 10
85.1693125622204
 20
160.2167250505293
 30
0.0
 40
0.29989320795
100
AcDbArc
 50
90.0
 51
165.0000000000055
  0
ARC
  5
E57F
330
37
100
AcDbEntity
  8
01_表面形状
 62
     3
100
AcDbCircle
 10
85.68371990330239
 20
160.2167250505293
 30
0.0
 40
0.29989320795
100
AcDbArc
 50
0.0
 51
90.0
  0
ARC
  5
E580
330
37
100
AcDbEntity
  8
01_表面形状
 62
     3
100
AcDbCircle
 10
85.68371990330239
 20
157.9675259909056
 30
0.0
 40
0.29989320795
100
AcDbArc
 50
14.47751218592996
 51
90.0
  0
LINE
  5
E581
330
37
100
AcDbEntity
  8
01_表面形状
 62
     3
100
AcDbLine
 10
84.56664149057667
 20
158.2674191988556
 30
0.0
 11
85.68371990330239
 21
158.2674191988556
 31
0.0
  0
LINE
  5
E582
330
37
100
AcDbEntity
  8
01_表面形状
 62
     3
100
AcDbLine
 10
84.84788799067644
 20
158.7172590107796
 30
0.0
 11
85.68371990330239
 21
158.7172590107796
 31
0.0
  0
ARC
  5
E583
330
37
100
AcDbEntity
  8
01_表面形状
 62
     3
100
AcDbCircle
 10
85.68371990330239
 20
159.0171522187295
 30
0.0
 40
0.29989320795
100
AcDbArc
 50
270.0
 51
0.0
  0
ARC
  5
E584
330
37
100
AcDbEntity
  8
01_表面形状
 62
     3
100
AcDbCircle
 10
84.84788799067644
 20
159.0171522187295
 30
0.0
 40
0.29989320795
100
AcDbArc
 50
165.0000000000055
 51
270.0
  0
LINE
  5
E585
330
37
100
AcDbEntity
  8
01_表面形状
 62
     3
100
AcDbLine
 10
85.98361311125279
 20
160.2167250505293
 30
0.0
 11
85.98361311125279
 21
159.0171522187295
 31
0.0
  0
LINE
  5
E586
330
37
100
AcDbEntity
  8
01_表面形状
 62
     3
100
AcDbLine
 10
84.87963796753263
 20
160.2943431242436
 30
0.0
 11
84.55821339598868
 21
159.0947702924438
 31
0.0
  0
LINE
  5
E587
330
37
100
AcDbEntity
  8
01_表面形状
 62
     3
100
AcDbLine
 10
79.46893930791237
 20
161.0372163054155
 30
0.0
 11
79.38900392437052
 21
160.7388933927157
 31
0.0
  0
LINE
  5
E588
330
37
100
AcDbEntity
  8
01_表面形状
 62
     3
100
AcDbLine
 10
85.1693125622204
 20
161.4162978823294
 30
0.0
 11
85.68371990330239
 21
161.4162978823294
 31
0.0
  0
ARC
  5
E589
330
37
100
AcDbEntity
  8
01_表面形状
 62
     3
100
AcDbCircle
 10
86.58339952715266
 20
158.1174725948797
 30
0.0
 40
0.29989320795
100
AcDbArc
 50
270.0
 51
0.0
  0
LINE
  5
E58A
330
37
100
AcDbEntity
  8
01_表面形状
 62
     3
100
AcDbLine
 10
86.26446060331852
 20
157.8175793869293
 30
0.0
 11
86.58339952715266
 21
157.8175793869293
 31
0.0
  0
LINE
  5
E58B
330
37
100
AcDbEntity
  8
01_表面形状
 62
     3
100
AcDbLine
 10
86.88329273510442
 20
160.2167250505293
 30
0.0
 11
86.88329273510442
 21
158.1174725948797
 31
0.0
  0
LWPOLYLINE
  5
E58C
330
37
100
AcDbEntity
  8
01_表面形状
 62
     3
100
AcDbPolyline
 90
        8
 70
     1
 43
0.0
 10
153.3464170701653
 20
167.7673486284217
 10
149.2250877078564
 20
157.8175793869293
 10
153.3464170701652
 20
147.867810145437
 10
163.2961863116575
 20
143.7464807831282
 10
173.2459555531498
 20
147.867810145437
 10
177.3672849154587
 20
157.8175793869293
 10
173.2459555531498
 20
167.7673486284217
 10
163.2961863116576
 20
171.8886779907305
  0
ARC
  5
E58D
330
37
100
AcDbEntity
  8
01_表面形状
 62
     3
100
AcDbCircle
 10
150.2961863116575
 20
178.0175793869293
 30
0.0
 40
2.0
100
AcDbArc
 50
180.0
 51
270.0
  0
LINE
  5
E58E
330
37
100
AcDbEntity
  8
01_表面形状
 62
     3
100
AcDbLine
 10
178.2961863116575
 20
189.3175793869293
 30
0.0
 11
178.2961863116575
 21
178.0175793869293
 31
0.0
  0
LINE
  5
E58F
330
37
100
AcDbEntity
  8
01_表面形状
 62
     3
100
AcDbLine
 10
148.2961863116575
 20
189.3175793869293
 30
0.0
 11
148.2961863116575
 21
178.0175793869293
 31
0.0
  0
LINE
  5
E590
330
37
100
AcDbEntity
  8
01_表面形状
 62
     3
100
AcDbLine
 10
148.2961863116575
 20
186.8175793869293
 30
0.0
 11
148.2961863116575
 21
178.0175793869293
 31
0.0
  0
LINE
  5
E591
330
37
100
AcDbEntity
  8
01_表面形状
 62
     3
100
AcDbLine
 10
178.2961863116575
 20
186.8175793869293
 30
0.0
 11
178.2961863116575
 21
178.0175793869293
 31
0.0
  0
ARC
  5
E592
330
37
100
AcDbEntity
  8
01_表面形状
 62
     3
100
AcDbCircle
 10
176.2961863116575
 20
178.0175793869293
 30
0.0
 40
2.0
100
AcDbArc
 50
270.0
 51
0.0
  0
ARC
  5
E593
330
37
100
AcDbEntity
  8
01_表面形状
 62
     3
100
AcDbCircle
 10
163.2961863116575
 20
156.8175793869293
 30
0.0
 40
13.2
100
AcDbArc
 50
185.412533935173
 51
189.9865514472009
  0
ARC
  5
E594
330
37
100
AcDbEntity
  8
01_表面形状
 62
     3
100
AcDbCircle
 10
163.2961863116575
 20
156.8175793869293
 30
0.0
 40
13.2
100
AcDbArc
 50
185.412533935173
 51
219.5874660648279
  0
ARC
  5
E595
330
37
100
AcDbEntity
  8
01_表面形状
 62
     3
100
AcDbCircle
 10
163.2961863116575
 20
156.8175793869293
 30
0.0
 40
13.2
100
AcDbArc
 50
223.6855140390727
 51
316.3144859609267
  0
ARC
  5
E596
330
37
100
AcDbEntity
  8
01_表面形状
 62
     3
100
AcDbCircle
 10
163.2961863116575
 20
156.8175793869293
 30
0.0
 40
13.2
100
AcDbArc
 50
320.4125339351721
 51
354.587466064827
  0
ARC
  5
E597
330
37
100
AcDbEntity
  8
01_表面形状
 62
     3
100
AcDbCircle
 10
163.2961863116575
 20
156.8175793869293
 30
0.0
 40
13.2
100
AcDbArc
 50
350.013448552799
 51
354.587466064827
  0
LINE
  5
E598
330
37
100
AcDbEntity
  8
01_表面形状
 62
     3
100
AcDbLine
 10
176.5282340193663
 20
159.8432274397969
 30
0.0
 11
176.6961863116574
 21
176.0579875927028
 31
0.0
  0
LINE
  5
E599
330
37
100
AcDbEntity
  8
01_表面形状
 62
     3
100
AcDbLine
 10
68.02576336057938
 20
175.189152262183
 30
0.0
 11
68.02576336057936
 21
172.8886779907305
 31
0.0
  0
ARC
  5
E59A
330
37
100
AcDbEntity
  8
01_表面形状
 62
     3
100
AcDbCircle
 10
67.02576336057939
 20
175.1891522621831
 30
0.0
 40
1.0
100
AcDbArc
 50
359.9999999999984
 51
70.5287793655104
  0
ARC
  5
E59B
330
37
100
AcDbEntity
  8
01_表面形状
 62
     3
100
AcDbCircle
 10
88.58863644816887
 20
142.8639798921736
 30
0.0
 40
2.68171331022034
100
AcDbArc
 50
46.75989713562606
 51
123.0501127050777
  0
ARC
  5
E59C
330
37
100
AcDbEntity
  8
01_表面形状
 62
     3
100
AcDbCircle
 10
81.02576336057936
 20
156.8175793869293
 30
0.0
 40
13.2
100
AcDbArc
 50
270.0
 51
297.5257383824974
  0
LINE
  5
E59D
330
37
100
AcDbEntity
  8
01_表面形状
 62
     3
100
AcDbLine
 10
70.02576336057936
 20
174.0175793869293
 30
0.0
 11
71.44307970969936
 21
157.8175793869293
 31
0.0
  0
ARC
  5
E59E
330
37
100
AcDbEntity
  8
01_表面形状
 62
     3
100
AcDbCircle
 10
81.02576336057936
 20
156.8175793869293
 30
0.0
 40
13.2
100
AcDbArc
 50
242.4742616175048
 51
270.0
  0
ARC
  5
E59F
330
37
100
AcDbEntity
  8
01_表面形状
 62
     3
100
AcDbCircle
 10
73.46289027298985
 20
142.8639798921736
 30
0.0
 40
2.68171331022034
100
AcDbArc
 50
56.94988729492223
 51
133.2401028643739
  0
LINE
  5
E5A0
330
37
100
AcDbEntity
  8
01_表面形状
 62
     3
100
AcDbLine
 10
72.2542906615655
 20
175.1891522621831
 30
0.0
 11
72.2542906615655
 21
159.2779170523105
 31
0.0
  0
LINE
  5
E5A1
330
37
100
AcDbEntity
  8
01_表面形状
 62
     3
100
AcDbLine
 10
89.79723605959325
 20
175.1891522621831
 30
0.0
 11
89.7972360595933
 21
158.9701101777125
 31
0.0
  0
LINE
  5
E5A2
330
37
100
AcDbEntity
  8
01_表面形状
 62
     3
100
AcDbLine
 10
102.0257633605794
 20
171.8886779907305
 30
0.0
 11
93.47647137425132
 21
171.8886779907305
 31
0.0
  0
LINE
  5
E5A3
330
37
100
AcDbEntity
  8
01_表面形状
 62
     3
100
AcDbLine
 10
102.0257633605794
 20
143.7464807831282
 30
0.0
 11
95.0257633605794
 21
143.7464807831282
 31
0.0
  0
LINE
  5
E5A4
330
37
100
AcDbEntity
  8
01_表面形状
 62
     3
100
AcDbLine
 10
95.0257633605794
 20
157.8175793869293
 30
0.0
 11
102.0257633605794
 21
157.8175793869293
 31
0.0
  0
LINE
  5
E5A5
330
37
100
AcDbEntity
  8
01_表面形状
 62
     3
100
AcDbLine
 10
60.02576336057936
 20
171.8886779907305
 30
0.0
 11
60.02576336057933
 21
143.7464807831282
 31
0.0
  0
ARC
  5
E5A6
330
37
100
AcDbEntity
  8
01_表面形状
 62
     3
100
AcDbCircle
 10
68.57505534690742
 20
173.3886779907305
 30
0.0
 40
1.5
100
AcDbArc
 50
270.0
 51
4.999999999999778
  0
ARC
  5
E5A7
330
37
100
AcDbEntity
  8
01_表面形状
 62
     3
100
AcDbCircle
 10
67.02576336057934
 20
172.8886779907305
 30
0.0
 40
1.0
100
AcDbArc
 50
270.0
 51
0.0
  0
LINE
  5
E5A8
330
37
100
AcDbEntity
  8
01_表面形状
 62
     3
100
AcDbLine
 10
67.02576336057934
 20
143.7464807831282
 30
0.0
 11
67.02576336057934
 21
171.8886779907305
 31
0.0
  0
LINE
  5
E5A9
330
37
100
AcDbEntity
  8
01_表面形状
 62
     3
100
AcDbLine
 10
67.02576336057936
 20
167.7673486284217
 30
0.0
 11
60.02576336057936
 21
167.7673486284217
 31
0.0
  0
LINE
  5
E5AA
330
37
100
AcDbEntity
  8
01_表面形状
 62
     3
100
AcDbLine
 10
67.02576336057934
 20
147.8678101454369
 30
0.0
 11
60.02576336057933
 21
147.867810145437
 31
0.0
  0
LINE
  5
E5AB
330
37
100
AcDbEntity
  8
01_表面形状
 62
     3
100
AcDbLine
 10
60.02576336057936
 20
171.8886779907305
 30
0.0
 11
68.57505534690742
 21
171.8886779907305
 31
0.0
  0
LINE
  5
E5AC
330
37
100
AcDbEntity
  8
01_表面形状
 62
     3
100
AcDbLine
 10
60.02576336057933
 20
143.7464807831282
 30
0.0
 11
67.02576336057934
 21
143.7464807831282
 31
0.0
  0
LINE
  5
E5AD
330
37
100
AcDbEntity
  8
01_表面形状
 62
     3
100
AcDbLine
 10
67.02576336057939
 20
144.8175793869294
 30
0.0
 11
71.62576336057941
 21
144.8175793869293
 31
0.0
  0
LINE
  5
E5AE
330
37
100
AcDbEntity
  8
01_表面形状
 62
     3
100
AcDbLine
 10
102.0257633605794
 20
292.835196818911
 30
0.0
 11
102.0257633605794
 21
288.5173008321938
 31
0.0
  0
LINE
  5
E5AF
330
37
100
AcDbEntity
  8
01_表面形状
 62
     3
100
AcDbLine
 10
102.0257633605794
 20
283.2627465342049
 30
0.0
 11
102.0257633605794
 21
281.26409821511
 31
0.0
  0
LINE
  5
E5B0
330
37
100
AcDbEntity
  8
01_表面形状
 62
     3
100
AcDbLine
 10
102.0257633605794
 20
276.2640982151101
 30
0.0
 11
102.0257633605794
 21
274.265449896015
 31
0.0
  0
LINE
  5
E5B1
330
37
100
AcDbEntity
  8
01_表面形状
 62
     3
100
AcDbLine
 10
102.0257633605794
 20
269.0108955980261
 30
0.0
 11
102.0257633605794
 21
264.6929996113087
 31
0.0
  0
LINE
  5
E5B2
330
37
100
AcDbEntity
  8
01_表面形状
 62
     3
100
AcDbLine
 10
95.0257633605794
 20
268.2996321210426
 30
0.0
 11
95.0257633605794
 21
269.1204474541168
 31
0.0
  0
LINE
  5
E5B3
330
37
100
AcDbEntity
  8
01_表面形状
 62
     3
100
AcDbLine
 10
95.0257633605794
 20
288.4077489761028
 30
0.0
 11
95.02576336057941
 21
289.2285643091772
 31
0.0
  0
LINE
  5
E5B4
330
37
100
AcDbEntity
  8
01_表面形状
 62
     3
100
AcDbLine
 10
95.0257633605794
 20
288.7138674566021
 30
0.0
 11
99.37245005301827
 21
288.7138674566022
 31
0.0
  0
LINE
  5
E5B5
330
37
100
AcDbEntity
  8
01_表面形状
 62
     3
100
AcDbLine
 10
101.9643489772482
 20
288.7138674566022
 30
0.0
 11
102.0257633605794
 21
288.7138674566022
 31
0.0
  0
LINE
  5
E5B6
330
37
100
AcDbEntity
  8
01_表面形状
 62
     3
100
AcDbLine
 10
95.0257633605794
 20
268.8143289736174
 30
0.0
 11
99.37245005301825
 21
268.8143289736175
 31
0.0
  0
LINE
  5
E5B7
330
37
100
AcDbEntity
  8
01_表面形状
 62
     3
100
AcDbLine
 10
101.9643489772482
 20
268.8143289736175
 30
0.0
 11
102.0257633605794
 21
268.8143289736175
 31
0.0
  0
LINE
  5
E5B8
330
37
100
AcDbEntity
  8
01_表面形状
 62
     3
100
AcDbLine
 10
102.0257633605794
 20
292.835196818911
 30
0.0
 11
101.4657432572469
 21
292.8351968189109
 31
0.0
  0
LINE
  5
E5B9
330
37
100
AcDbEntity
  8
01_表面形状
 62
     3
100
AcDbLine
 10
102.0257633605794
 20
264.6929996113087
 30
0.0
 11
101.4657432572469
 21
264.6929996113087
 31
0.0
  0
LINE
  5
E5BA
330
37
100
AcDbEntity
  8
01_表面形状
 62
     3
100
AcDbLine
 10
60.02576336057936
 20
292.835196818911
 30
0.0
 11
60.02576336057933
 21
288.5173008321932
 31
0.0
  0
LINE
  5
E5BB
330
37
100
AcDbEntity
  8
01_表面形状
 62
     3
100
AcDbLine
 10
60.02576336057933
 20
283.2627465342047
 30
0.0
 11
60.02576336057933
 21
281.2640982151098
 31
0.0
  0
LINE
  5
E5BC
330
37
100
AcDbEntity
  8
01_表面形状
 62
     3
100
AcDbLine
 10
60.02576336057933
 20
276.2640982151098
 30
0.0
 11
60.02576336057936
 21
274.2654498960151
 31
0.0
  0
LINE
  5
E5BD
330
37
100
AcDbEntity
  8
01_表面形状
 62
     3
100
AcDbLine
 10
60.02576336057936
 20
269.0108955980266
 30
0.0
 11
60.02576336057933
 21
264.6929996113087
 31
0.0
  0
LINE
  5
E5BE
330
37
100
AcDbEntity
  8
01_表面形状
 62
     3
100
AcDbLine
 10
67.0257633605793
 20
268.2996321210425
 30
0.0
 11
67.0257633605793
 21
269.120447454117
 31
0.0
  0
LINE
  5
E5BF
330
37
100
AcDbEntity
  8
01_表面形状
 62
     3
100
AcDbLine
 10
67.0257633605793
 20
288.4077489761026
 30
0.0
 11
67.02576336057934
 21
289.228564309177
 31
0.0
  0
LINE
  5
E5C0
330
37
100
AcDbEntity
  8
01_表面形状
 62
     3
100
AcDbLine
 10
67.02576336057936
 20
288.7138674566021
 30
0.0
 11
62.6790766681406
 21
288.7138674566021
 31
0.0
  0
LINE
  5
E5C1
330
37
100
AcDbEntity
  8
01_表面形状
 62
     3
100
AcDbLine
 10
60.08717774391062
 20
288.7138674566021
 30
0.0
 11
60.02576336057936
 21
288.7138674566022
 31
0.0
  0
LINE
  5
E5C2
330
37
100
AcDbEntity
  8
01_表面形状
 62
     3
100
AcDbLine
 10
67.02576336057934
 20
268.8143289736174
 30
0.0
 11
62.67907666814065
 21
268.8143289736175
 31
0.0
  0
LINE
  5
E5C3
330
37
100
AcDbEntity
  8
01_表面形状
 62
     3
100
AcDbLine
 10
60.08717774391067
 20
268.8143289736175
 30
0.0
 11
60.02576336057933
 21
268.8143289736175
 31
0.0
  0
LINE
  5
E5C4
330
37
100
AcDbEntity
  8
01_表面形状
 62
     3
100
AcDbLine
 10
60.02576336057936
 20
292.835196818911
 30
0.0
 11
60.58578346391195
 21
292.835196818911
 31
0.0
  0
LINE
  5
E5C5
330
37
100
AcDbEntity
  8
01_表面形状
 62
     3
100
AcDbLine
 10
60.02576336057933
 20
264.6929996113087
 30
0.0
 11
60.58578346391192
 21
264.6929996113087
 31
0.0
  0
LINE
  5
E5C6
330
37
100
AcDbEntity
  8
01_表面形状
 62
     3
100
AcDbLine
 10
74.32294543807779
 20
285.1979353720222
 30
0.0
 11
76.57696681181119
 21
287.0892838753876
 31
0.0
  0
LINE
  5
E5C7
330
37
100
AcDbEntity
  8
01_表面形状
 62
     3
100
AcDbLine
 10
74.93191289338245
 20
284.4721962193899
 30
0.0
 11
75.30231072334453
 21
284.7829969019
 31
0.0
  0
LINE
  5
E5C8
330
37
100
AcDbEntity
  8
01_表面形状
 62
     3
100
AcDbLine
 10
76.61580281829663
 20
285.8851476343286
 30
0.0
 11
77.18593426711584
 21
286.3635447227554
 31
0.0
  0
LINE
  5
E5C9
330
37
100
AcDbEntity
  8
01_表面形状
 62
     3
100
AcDbLine
 10
76.49097526297038
 20
285.3220869190271
 30
0.0
 11
77.42726984189875
 21
283.3141967148798
 31
0.0
  0
ARC
  5
E5CA
330
37
100
AcDbEntity
  8
01_表面形状
 62
     3
100
AcDbCircle
 10
74.62742916573006
 20
284.8350657957061
 30
0.0
 40
0.4736925899999999
100
AcDbArc
 50
130.0000000000022
 51
310.0000000000004
  0
ARC
  5
E5CB
330
37
100
AcDbEntity
  8
01_表面形状
 62
     3
100
AcDbCircle
 10
76.88145053946357
 20
286.7264142990715
 30
0.0
 40
0.4736925899999999
100
AcDbArc
 50
310.0000000000004
 51
130.0000000000022
  0
ARC
  5
E5CC
330
37
100
AcDbEntity
  8
01_表面形状
 62
     3
100
AcDbCircle
 10
76.99795855892006
 20
283.1140055758946
 30
0.0
 40
0.4736925899999999
100
AcDbArc
 50
204.2944179854851
 51
24.9999999999997
  0
ARC
  5
E5CD
330
37
100
AcDbEntity
  8
01_表面形状
 62
     3
100
AcDbCircle
 10
76.92028654594901
 20
285.5222780580125
 30
0.0
 40
0.4736925899999999
100
AcDbArc
 50
130.0000000000022
 51
204.9999999999997
  0
LINE
  5
E5CE
330
37
100
AcDbEntity
  8
01_表面形状
 62
     3
100
AcDbLine
 10
75.74258772972325
 20
284.6853898395017
 30
0.0
 11
76.57114506598361
 21
282.9085428978522
 31
0.0
  0
ARC
  5
E5CF
330
37
100
AcDbEntity
  8
01_表面形状
 62
     3
100
AcDbCircle
 10
75.48500095993597
 20
284.5652751561102
 30
0.0
 40
0.284215554
100
AcDbArc
 50
24.9999999999997
 51
130.0000000000022
  0
LINE
  5
E5D0
330
37
100
AcDbEntity
  8
01_表面形状
 62
     3
100
AcDbLine
 10
80.47660650702836
 20
288.1709938842633
 30
0.0
 11
81.60816957784589
 21
288.2302965919235
 31
0.0
  0
LINE
  5
E5D1
330
37
100
AcDbEntity
  8
01_表面形状
 62
     3
100
AcDbLine
 10
79.83375585396863
 20
284.3425622280848
 30
0.0
 11
80.96531892478607
 21
284.4018649357451
 31
0.0
  0
LINE
  5
E5D2
330
37
100
AcDbEntity
  8
01_表面形状
 62
     3
100
AcDbLine
 10
80.42199170984792
 20
284.8477330231161
 30
0.0
 11
80.52339298976823
 21
284.8530472390133
 31
0.0
  0
ARC
  5
E5D3
330
37
100
AcDbEntity
  8
01_表面形状
 62
     3
100
AcDbCircle
 10
80.46389421857737
 20
285.9883514248576
 30
0.0
 40
1.136862215999999
100
AcDbArc
 50
272.9999999999991
 51
348.0000000000038
  0
ARC
  5
E5D4
330
37
100
AcDbEntity
  8
01_表面形状
 62
     3
100
AcDbCircle
 10
81.66766834903683
 20
287.0949924060795
 30
0.0
 40
1.136862215999999
100
AcDbArc
 50
348.0000000000038
 51
92.9999999999991
  0
ARC
  5
E5D5
330
37
100
AcDbEntity
  8
01_表面形状
 62
     3
100
AcDbCircle
 10
80.56585466381466
 20
286.4680376054972
 30
0.0
 40
1.705293323999999
100
AcDbArc
 50
92.9999999999991
 51
168.0000000000037
  0
LINE
  5
E5D6
330
37
100
AcDbEntity
  8
01_表面形状
 62
     3
100
AcDbLine
 10
80.9185324420464
 20
287.719811580995
 30
0.0
 11
81.01993372196636
 21
287.7251257968922
 31
0.0
  0
ARC
  5
E5D7
330
37
100
AcDbEntity
  8
01_表面形状
 62
     3
100
AcDbCircle
 10
80.97803121323716
 20
286.584507395151
 30
0.0
 40
1.136862215999999
100
AcDbArc
 50
92.9999999999991
 51
167.9999999999838
  0
LINE
  5
E5D8
330
37
100
AcDbEntity
  8
01_表面形状
 62
     3
100
AcDbLine
 10
78.89782609039684
 20
286.8225880238302
 30
0.0
 11
78.66223803383252
 21
285.7142333594844
 31
0.0
  0
ARC
  5
E5D9
330
37
100
AcDbEntity
  8
01_表面形状
 62
     3
100
AcDbCircle
 10
79.77425708277781
 20
285.4778664139289
 30
0.0
 40
1.136862215999999
100
AcDbArc
 50
168.0000000000037
 51
272.9999999999991
  0
LINE
  5
E5DA
330
37
100
AcDbEntity
  8
01_表面形状
 62
     3
100
AcDbLine
 10
79.8660121642921
 20
286.8208743407066
 30
0.0
 11
79.64097982975727
 21
285.7621804440494
 31
0.0
  0
ARC
  5
E5DB
330
37
100
AcDbEntity
  8
01_表面形状
 62
     3
100
AcDbCircle
 10
80.38232586238734
 20
285.6046024803458
 30
0.0
 40
0.757908144
100
AcDbArc
 50
167.9999999999838
 51
272.9999999999991
  0
LINE
  5
E5DC
330
37
100
AcDbEntity
  8
01_表面形状
 62
     3
100
AcDbLine
 10
82.77968739798206
 20
286.858625460524
 30
0.0
 11
82.54409934141779
 21
285.750270796178
 31
0.0
  0
ARC
  5
E5DD
330
37
100
AcDbEntity
  8
01_表面形状
 62
     3
100
AcDbCircle
 10
80.87607076799974
 20
286.1048212145112
 30
0.0
 40
1.705293323999999
100
AcDbArc
 50
272.9999999999991
 51
348.0000000000038
  0
LINE
  5
E5DE
330
37
100
AcDbEntity
  8
01_表面形状
 62
     3
100
AcDbLine
 10
81.80094560205715
 20
286.8106783759591
 30
0.0
 11
81.57591326752253
 21
285.751984479302
 31
0.0
  0
ARC
  5
E5DF
330
37
100
AcDbEntity
  8
01_表面形状
 62
     3
100
AcDbCircle
 10
81.05959956942689
 20
286.9682563396626
 30
0.0
 40
0.757908144
100
AcDbArc
 50
348.0000000000038
 51
92.9999999999991
  0
LINE
  5
E5E0
330
37
100
AcDbEntity
  8
01_表面形状
 62
     3
100
AcDbLine
 10
84.65689985173952
 20
286.2206236182051
 30
0.0
 11
83.02074566868435
 21
285.0749761255562
 31
0.0
  0
ARC
  5
E5E1
330
37
100
AcDbEntity
  8
01_表面形状
 62
     3
100
AcDbCircle
 10
83.2924445763823
 20
284.6869498720931
 30
0.0
 40
0.4736925899999008
100
AcDbArc
 50
124.9999999999881
 51
304.9999999999881
  0
LINE
  5
E5E2
330
37
100
AcDbEntity
  8
01_表面形状
 62
     3
100
AcDbLine
 10
83.56414348408032
 20
284.29892361863
 30
0.0
 11
83.66811480533806
 21
284.3717251215322
 31
0.0
  0
LINE
  5
E5E3
330
37
100
AcDbEntity
  8
01_表面形状
 62
     3
100
AcDbLine
 10
83.66811480533806
 20
284.3717251215322
 30
0.0
 11
85.18359637380001
 21
283.1000850963794
 31
0.0
  0
ARC
  5
E5E4
330
37
100
AcDbEntity
  8
01_表面形状
 62
     3
100
AcDbCircle
 10
85.54646595011622
 20
282.795601368727
 30
0.0
 40
0.4736925900000289
100
AcDbArc
 50
140.0000000000045
 51
320.0000000000045
  0
LINE
  5
E5E5
330
37
100
AcDbEntity
  8
01_表面形状
 62
     3
100
AcDbLine
 10
85.90933552643241
 20
282.4911176410747
 30
0.0
 11
86.94458020045045
 21
283.7248742005499
 31
0.0
  0
ARC
  5
E5E6
330
37
100
AcDbEntity
  8
01_表面形状
 62
     3
100
AcDbCircle
 10
85.63824972571252
 20
284.8210156200984
 30
0.0
 40
1.705293324000005
100
AcDbArc
 50
319.9999999999874
 51
50.0709175439673
  0
ARC
  5
E5E7
330
37
100
AcDbEntity
  8
01_表面形状
 62
     3
100
AcDbCircle
 10
85.63501591945282
 20
284.8237291057381
 30
0.0
 40
1.705293323999941
100
AcDbArc
 50
49.92908245603658
 51
125.3312556800349
  0
LWPOLYLINE
  5
E5E8
330
37
100
AcDbEntity
  8
01_表面形状
 62
     3
100
AcDbPolyline
 90
        8
 70
     0
 43
0.0
 10
85.2384087732255
 20
285.4712567950524
 10
84.57551480176363
 20
285.0070934392011
 42
0.4931454260313034
 10
84.54272998180938
 20
284.2561976094217
 10
85.12521052513648
 20
283.7674384003479
 42
0.4142135623731421
 10
85.79256382910495
 20
283.8258242490117
 10
86.21884104781827
 20
284.3338416558544
 42
0.4150294844298411
 10
86.12380489760942
 20
285.4029614335426
 42
0.3426517265994233
 10
85.19492997314433
 20
285.4407778190525
  0
VIEWPORT
  5
542
330
33
100
AcDbEntity
 67
     1
  8
0
100
AcDbViewport
 10
185.623303891547
 20
148.4223392912986
 30
0.0
 40
450.4060917083241
 41
309.2814998667928
 68
     1
 69
     1
 12
185.623303891547
 22
148.4223392912986
 13
0.0
 23
0.0
 14
10.0
 24
10.0
 15
10.0
 25
10.0
 16
0.0
 26
0.0
 36
1.0
 17
0.0
 27
0.0
 37
0.0
 42
50.0
 43
0.0
 44
0.0
 45
309.2814998667928
 50
0.0
 51
0.0
 72
  1000
 90
   557088
  1

281
     0
 71
     1
 74
     0
110
0.0
120
0.0
130
0.0
111
1.0
121
0.0
131
0.0
112
0.0
122
1.0
132
0.0
 79
     0
146
0.0
170
     0
 61
     5
348
1A
292
     1
282
     1
141
0.0
142
0.0
 63
   250
421
  3355443
  0
ENDSEC
  0
SECTION
  2
OBJECTS
  0
DICTIONARY
  5
C
330
0
100
AcDbDictionary
281
     1
  3
ACAD_CIP_PREVIOUS_PRODUCT_INFO
350
DB99
  3
ACAD_COLOR
350
30
  3
ACAD_DETAILVIEWSTYLE
350
DB91
  3
ACAD_GROUP
350
D
  3
ACAD_LAYOUT
350
2F
  3
ACAD_MATERIAL
350
10
  3
ACAD_MLEADERSTYLE
350
C40
  3
ACAD_MLINESTYLE
350
2C
  3
ACAD_PLOTSETTINGS
350
2E
  3
ACAD_PLOTSTYLENAME
350
E
  3
ACAD_SCALELIST
350
C2E
  3
ACAD_SECTIONVIEWSTYLE
350
DB8F
  3
ACAD_TABLESTYLE
350
31
  3
ACAD_VISUALSTYLE
350
14
  3
ACDB_RECOMPOSE_DATA
350
F133
  3
AcDbVariableDictionary
350
42
  0
DICTIONARY
  5
366A
330
8
100
AcDbDictionary
280
     1
281
     1
  0
DICTIONARY
  5
81
330
2
100
AcDbDictionary
280
     1
281
     1
  3
ACAD_LAYERFILTERS
360
C1F
  3
ACAD_LAYERSTATES
360
559
  3
ACLYDICTIONARY
360
C1E
  0
DICTIONARY
  5
3620
330
25
100
AcDbDictionary
280
     1
281
     1
  3
ADSK_XREC_LAYER_RECONCILED
360
BCDA
  0
DICTIONARY
  5
3622
330
75
100
AcDbDictionary
280
     1
281
     1
  3
ADSK_XREC_LAYER_RECONCILED
360
BCDB
  0
DICTIONARY
  5
3624
330
77
100
AcDbDictionary
280
     1
281
     1
  3
ADSK_XREC_LAYER_RECONCILED
360
BCDC
  0
DICTIONARY
  5
362E
330
7C
100
AcDbDictionary
280
     1
281
     1
  3
ADSK_XREC_LAYER_RECONCILED
360
BCE1
  0
DICTIONARY
  5
93D8
330
1EA
100
AcDbDictionary
280
     1
281
     1
  3
ADSK_XREC_LAYER_RECONCILED
360
BCE4
  0
DICTIONARY
  5
48
330
37
100
AcDbDictionary
280
     1
281
     1
  3
ACAD_SORTENTS
360
49
  0
DICTIONARY
  5
B96
330
33
100
AcDbDictionary
280
     1
281
     1
  3
ACAD_SORTENTS
360
B97
  0
XRECORD
  5
DB99
102
{ACAD_REACTORS
330
C
102
}
330
C
100
AcDbXrecord
280
     1
300
ACD
300
2016
300
ACD_F_S
  0
DICTIONARY
  5
30
102
{ACAD_REACTORS
330
C
102
}
330
C
100
AcDbDictionary
281
     1
  0
DICTIONARY
  5
DB91
102
{ACAD_REACTORS
330
C
102
}
330
C
100
AcDbDictionary
281
     1
  3
Metric50
350
DB92
  0
DICTIONARY
  5
D
102
{ACAD_REACTORS
330
C
102
}
330
C
100
AcDbDictionary
281
     1
  0
DICTIONARY
  5
2F
102
{ACAD_REACTORS
330
C
102
}
330
C
100
AcDbDictionary
281
     1
  3
Model
350
3A
  3
レイアウト1
350
36
  0
DICTIONARY
  5
10
102
{ACAD_REACTORS
330
C
102
}
330
C
100
AcDbDictionary
281
     1
  3
ByBlock
350
12
  3
ByLayer
350
11
  3
Global
350
13
  0
DICTIONARY
  5
C40
102
{ACAD_REACTORS
330
C
102
}
330
C
100
AcDbDictionary
281
     1
  3
Standard
350
C41
  3
部品図用_1：1
350
84CA
  0
DICTIONARY
  5
2C
102
{ACAD_REACTORS
330
C
102
}
330
C
100
AcDbDictionary
281
     1
  3
Standard
350
2D
  0
DICTIONARY
  5
2E
102
{ACAD_REACTORS
330
C
102
}
330
C
100
AcDbDictionary
281
     1
  3
A4横
350
7876
  3
A4縦
350
786D
  0
ACDBDICTIONARYWDFLT
  5
E
102
{ACAD_REACTORS
330
C
102
}
330
C
100
AcDbDictionary
281
     1
  3
Normal
350
F
100
AcDbDictionaryWithDefault
340
F
  0
DICTIONARY
  5
C2E
102
{ACAD_REACTORS
330
C
102
}
330
C
100
AcDbDictionary
281
     1
  3
A0
350
3737
  3
A1
350
3738
  3
A2
350
3739
  3
A3
350
373A
  3
A4
350
373B
  3
A5
350
373C
  3
A6
350
373D
  3
A7
350
373E
  3
A8
350
373F
  3
A9
350
3740
  3
B0
350
C2F
  3
B1
350
3741
  3
B2
350
3742
  3
B3
350
3743
  3
B4
350
3744
  3
B5
350
3745
  3
B6
350
3746
  0
DICTIONARY
  5
DB8F
102
{ACAD_REACTORS
330
C
102
}
330
C
100
AcDbDictionary
281
     1
  3
Metric50
350
DB90
  0
DICTIONARY
  5
31
102
{ACAD_REACTORS
330
C
102
}
330
C
100
AcDbDictionary
281
     1
  3
Standard
350
32
  0
DICTIONARY
  5
14
102
{ACAD_REACTORS
330
C
102
}
330
C
100
AcDbDictionary
281
     1
  3
2dWireframe
350
1A
  3
3D Hidden
350
1C
  3
3dWireframe
350
1B
  3
Basic
350
19
  3
Brighten
350
20
  3
ColorChange
350
24
  3
Conceptual
350
1D
  3
Dim
350
1F
  3
EdgeColorOff
350
C2D
  3
Facepattern
350
23
  3
Flat
350
15
  3
FlatWithEdges
350
16
  3
Gouraud
350
17
  3
GouraudWithEdges
350
18
  3
Hidden
350
DB89
  3
JitterOff
350
C2B
  3
Linepattern
350
22
  3
OverhangOff
350
C2C
  3
Realistic
350
1E
  3
Shaded
350
DB8E
  3
Shaded with edges
350
DB8D
  3
Shades of Gray
350
DB8A
  3
Sketchy
350
DB8B
  3
Thicken
350
21
  3
Wireframe
350
DB88
  3
X-Ray
350
DB8C
  0
XRECORD
  5
F133
102
{ACAD_REACTORS
330
C
102
}
330
C
100
AcDbXrecord
280
     1
 90
        1
330
32
  0
DICTIONARY
  5
42
102
{ACAD_REACTORS
330
C
102
}
330
C
100
AcDbDictionary
281
     1
  3
CANNOSCALE
350
3714
  3
CMLEADERSTYLE
350
3713
  3
CTABLESTYLE
350
43
  3
CVIEWDETAILSTYLE
350
DBE1
  3
CVIEWSECTIONSTYLE
350
DBE2
  3
DIMASSOC
350
3719
  3
HIDETEXT
350
3717
  3
INDEXCTL
350
3716
  3
LAYEREVAL
350
93DF
  3
LAYERNOTIFY
350
93E0
  3
LIGHTINGUNITS
350
93DE
  3
MLEADERSCALE
350
B1DD
  3
MSLTSCALE
350
93DD
  3
SORTENTS
350
3715
  0
DICTIONARY
  5
C1F
102
{ACAD_REACTORS
330
81
102
}
330
81
100
AcDbDictionary
281
     1
  0
DICTIONARY
  5
559
102
{ACAD_REACTORS
330
81
102
}
330
81
100
AcDbDictionary
281
     1
  0
DICTIONARY
  5
C1E
102
{ACAD_REACTORS
330
81
102
}
330
81
100
AcDbDictionary
281
     1
1001
ACAD
1000
<All
  0
XRECORD
  5
BCDA
102
{ACAD_REACTORS
330
3620
102
}
330
3620
100
AcDbXrecord
280
     1
290
     1
  0
XRECORD
  5
BCDB
102
{ACAD_REACTORS
330
3622
102
}
330
3622
100
AcDbXrecord
280
     1
290
     1
  0
XRECORD
  5
BCDC
102
{ACAD_REACTORS
330
3624
102
}
330
3624
100
AcDbXrecord
280
     1
290
     1
  0
XRECORD
  5
BCE1
102
{ACAD_REACTORS
330
362E
102
}
330
362E
100
AcDbXrecord
280
     1
290
     1
  0
XRECORD
  5
BCE4
102
{ACAD_REACTORS
330
93D8
102
}
330
93D8
100
AcDbXrecord
280
     1
290
     1
  0
SORTENTSTABLE
  5
49
102
{ACAD_REACTORS
330
48
102
}
330
48
100
AcDbSortentsTable
330
37
331
BD3D
  5
BD3D
  0
SORTENTSTABLE
  5
B97
102
{ACAD_REACTORS
330
B96
102
}
330
B96
100
AcDbSortentsTable
330
33
  0
ACDBDETAILVIEWSTYLE
  5
DB92
102
{ACAD_XDICTIONARY
360
F16A
102
}
102
{ACAD_REACTORS
330
DB91
102
}
330
DB91
100
AcDbModelDocViewStyle
 70
     0
  3
Metric50
290
     0
100
AcDbDetailViewStyle
 70
     0
 71
     0
 90
        3
 71
     1
340
26
 62
   256
 40
5.0
340
0
 62
   256
 40
5.0
300

 40
0.0
280
     1
 71
     2
340
2B
 90
       25
 62
   256
 71
     3
340
26
 62
   256
 40
5.0
 90
        0
 40
15.0
 90
        1
300
%<\AcVar ViewDetailId>% (%<\AcVar ViewScale \f "%sn">%)
 71
     4
340
2B
 90
       25
 62
   256
340
2B
 90
       25
 62
   256
280
     0
  0
LAYOUT
  5
3A
102
{ACAD_XDICTIONARY
360
92F1
102
}
102
{ACAD_REACTORS
330
2F
102
}
330
2F
100
AcDbPlotSettings
  1
A4縦
  2
Canon MP770 Series Printer
  4
A4
  6

 40
4.180416584014892
 41
5.831417560577392
 42
4.180404663085937
 43
3.757080078125
 44
209.9733276367187
 45
296.9683227539062
 46
-4.19374680519104
 47
-4.810087442398071
 48
0.0
 49
0.0
140
210.0
141
297.0
142
1.0
143
1.0
 70
 11940
 72
     1
 73
     0
 74
     4
  7
monochrome.ctb
 75
     0
147
0.7684300128340094
 76
     0
 77
     2
 78
   300
148
0.0
149
0.0
100
AcDbLayout
  1
Model
 70
     1
 71
     0
 10
0.0
 20
0.0
 11
12.0
 21
9.0
 12
0.0
 22
0.0
 32
0.0
 14
0.0
 24
0.0
 34
0.0
 15
0.0
 25
0.0
 35
0.0
146
0.0
 13
0.0
 23
0.0
 33
0.0
 16
1.0
 26
0.0
 36
0.0
 17
0.0
 27
1.0
 37
0.0
 76
     0
330
37
331
28
1001
ACAD_PSEXT
1000
Canon MP770 Series Printer
1000
Canon MP770 Series Printer
1000
USB001
1000

1070
     0
  0
LAYOUT
  5
36
102
{ACAD_XDICTIONARY
360
55B
102
}
102
{ACAD_REACTORS
330
2F
102
}
330
2F
100
AcDbPlotSettings
  1

  2
LP-8300F
  4
A4
  6

 40
5.873749732971191
 41
5.873717308044433
 42
5.873748779296875
 43
5.873748779296875
 44
209.9733276367187
 45
297.0106506347656
 46
0.0
 47
0.0
 48
0.0
 49
0.0
140
0.0
141
0.0
142
1.0
143
1.0
 70
   688
 72
     1
 73
     1
 74
     5
  7
monochrome.ctb
 75
    16
147
1.0
 76
     0
 77
     2
 78
   300
148
0.0
149
0.0
100
AcDbLayout
  1
レイアウト1
 70
     1
 71
     1
 10
-5.873748779296875
 20
-5.873749732971191
 11
291.1369018554688
 21
204.0995779037475
 12
0.0
 22
0.0
 32
0.0
 14
1.000000000000000E+20
 24
1.000000000000000E+20
 34
1.000000000000000E+20
 15
-1.000000000000000E+20
 25
-1.000000000000000E+20
 35
-1.000000000000000E+20
146
0.0
 13
0.0
 23
0.0
 33
0.0
 16
1.0
 26
0.0
 36
0.0
 17
0.0
 27
1.0
 37
0.0
 76
     0
330
33
331
542
1001
ACAD_PSEXT
1000
LP-8300F
1000
EPSON LP-8300F
1000
IP_192.168.252.91
1000

1070
     0
  0
MATERIAL
  5
12
102
{ACAD_REACTORS
330
10
102
}
330
10
100
AcDbMaterial
  1
ByBlock
 73
     1
 78
     1
172
     1
176
     1
270
     1
274
     1
 94
       63
  0
MATERIAL
  5
11
102
{ACAD_REACTORS
330
10
102
}
330
10
100
AcDbMaterial
  1
ByLayer
 73
     1
 78
     1
172
     1
176
     1
270
     1
274
     1
 94
       63
  0
MATERIAL
  5
13
102
{ACAD_REACTORS
330
10
102
}
330
10
100
AcDbMaterial
  1
Global
 73
     1
 78
     1
172
     1
176
     1
270
     1
274
     1
 94
       63
  0
MLEADERSTYLE
  5
C41
102
{ACAD_REACTORS
330
C40
102
}
330
C40
100
AcDbMLeaderStyle
179
     2
170
     2
171
     1
172
     0
 90
        2
 40
0.0
 41
0.0
173
     1
 91
-1073741824
340
2A
 92
       -1
290
     1
 42
1.0
291
     0
 43
-0.5
  3
Standard
 44
2.5
300

342
26
174
     5
178
     5
175
     1
176
     0
 93
-1073741824
 45
3.0
292
     0
297
     0
 46
4.0
 94
-1056964608
 47
1.0
 49
1.0
140
1.0
293
     1
141
0.0
294
     1
177
     0
142
1.0
295
     0
296
     0
143
0.15
271
     0
272
     9
273
     9
  0
MLEADERSTYLE
  5
84CA
102
{ACAD_REACTORS
330
C40
102
}
330
C40
100
AcDbMLeaderStyle
179
     2
170
     2
171
     1
172
     0
 90
        2
 40
0.0
 41
0.0
173
     1
 91
-1073741824
340
2A
 92
       -1
290
     1
 42
1.0
291
     0
 43
-0.5
  3
Standard
 44
2.5
300

342
26
174
     5
178
     5
175
     1
176
     0
 93
-1073741824
 45
3.5
292
     0
297
     0
 46
4.0
 94
-1056964608
 47
1.0
 49
1.0
140
1.0
293
     1
141
0.0
294
     1
177
     0
142
1.0
295
     0
296
     0
143
0.15
271
     0
272
     9
273
     9
  0
MLINESTYLE
  5
2D
102
{ACAD_REACTORS
330
2C
102
}
330
2C
100
AcDbMlineStyle
  2
STANDARD
 70
     0
  3

 62
   256
 51
90.0
 52
90.0
 71
     2
 49
0.5
 62
   256
  6
BYLAYER
 49
-0.5
 62
   256
  6
BYLAYER
  0
PLOTSETTINGS
  5
7876
102
{ACAD_REACTORS
330
2E
102
}
330
2E
100
AcDbPlotSettings
  1
A4横
  2
Canon MP770 Series Printer
  4
A4
  6

 40
4.180416584014892
 41
5.831417560577392
 42
4.180404663085937
 43
3.757080078125
 44
209.9733276367187
 45
296.9683227539062
 46
-4.19374680519104
 47
-4.810087442398071
 48
0.0
 49
350.0
140
297.0
141
560.0
142
1.0
143
1.0
 70
 11940
 72
     1
 73
     1
 74
     4
  7
monochrome.ctb
 75
     0
147
0.7684300128340094
 76
     0
 77
     2
 78
   300
148
0.0
149
-350.0
1001
ACAD_PSEXT
1000
Canon MP770 Series Printer
1000
Canon MP770 Series Printer
1000
USB001
1000

1070
     0
  0
PLOTSETTINGS
  5
786D
102
{ACAD_REACTORS
330
2E
102
}
330
2E
100
AcDbPlotSettings
  1
A4縦
  2
Canon MP770 Series Printer
  4
A4
  6

 40
4.180416584014892
 41
5.831417560577392
 42
4.180404663085937
 43
3.757080078125
 44
209.9733276367187
 45
296.9683227539062
 46
-4.19374680519104
 47
-4.810087442398071
 48
0.0
 49
0.0
140
210.0
141
297.0
142
1.0
143
1.0
 70
 11940
 72
     1
 73
     0
 74
     4
  7
monochrome.ctb
 75
     0
147
0.7684300128340094
 76
     0
 77
     2
 78
   300
148
0.0
149
0.0
1001
ACAD_PSEXT
1000
Canon MP770 Series Printer
1000
Canon MP770 Series Printer
1000
USB001
1000

1070
     0
  0
ACDBPLACEHOLDER
  5
F
102
{ACAD_REACTORS
330
E
102
}
330
E
  0
SCALE
  5
3737
102
{ACAD_REACTORS
330
C2E
102
}
330
C2E
100
AcDbScale
 70
     0
300
1:20
140
1.0
141
20.0
290
     0
  0
SCALE
  5
3738
102
{ACAD_REACTORS
330
C2E
102
}
330
C2E
100
AcDbScale
 70
     0
300
1:15
140
1.0
141
15.0
290
     0
  0
SCALE
  5
3739
102
{ACAD_REACTORS
330
C2E
102
}
330
C2E
100
AcDbScale
 70
     0
300
1:10
140
1.0
141
10.0
290
     0
  0
SCALE
  5
373A
102
{ACAD_REACTORS
330
C2E
102
}
330
C2E
100
AcDbScale
 70
     0
300
1:6
140
1.0
141
6.0
290
     0
  0
SCALE
  5
373B
102
{ACAD_REACTORS
330
C2E
102
}
330
C2E
100
AcDbScale
 70
     0
300
1:5
140
1.0
141
5.0
290
     0
  0
SCALE
  5
373C
102
{ACAD_REACTORS
330
C2E
102
}
330
C2E
100
AcDbScale
 70
     0
300
1:4
140
1.0
141
4.0
290
     0
  0
SCALE
  5
373D
102
{ACAD_REACTORS
330
C2E
102
}
330
C2E
100
AcDbScale
 70
     0
300
1:3
140
1.0
141
3.0
290
     0
  0
SCALE
  5
373E
102
{ACAD_REACTORS
330
C2E
102
}
330
C2E
100
AcDbScale
 70
     0
300
1:2.5
140
1.0
141
2.5
290
     0
  0
SCALE
  5
373F
102
{ACAD_REACTORS
330
C2E
102
}
330
C2E
100
AcDbScale
 70
     0
300
1:2
140
1.0
141
2.0
290
     0
  0
SCALE
  5
3740
102
{ACAD_REACTORS
330
C2E
102
}
330
C2E
100
AcDbScale
 70
     0
300
1:1.5
140
1.0
141
1.5
290
     0
  0
SCALE
  5
C2F
102
{ACAD_REACTORS
330
C2E
102
}
330
C2E
100
AcDbScale
 70
     0
300
1:1
140
1.0
141
1.0
290
     1
  0
SCALE
  5
3741
102
{ACAD_REACTORS
330
C2E
102
}
330
C2E
100
AcDbScale
 70
     0
300
2:1
140
2.0
141
1.0
290
     0
  0
SCALE
  5
3742
102
{ACAD_REACTORS
330
C2E
102
}
330
C2E
100
AcDbScale
 70
     0
300
2.5:1
140
2.5
141
1.0
290
     0
  0
SCALE
  5
3743
102
{ACAD_REACTORS
330
C2E
102
}
330
C2E
100
AcDbScale
 70
     0
300
3:1
140
3.0
141
1.0
290
     0
  0
SCALE
  5
3744
102
{ACAD_REACTORS
330
C2E
102
}
330
C2E
100
AcDbScale
 70
     0
300
4:1
140
4.0
141
1.0
290
     0
  0
SCALE
  5
3745
102
{ACAD_REACTORS
330
C2E
102
}
330
C2E
100
AcDbScale
 70
     0
300
5:1
140
5.0
141
1.0
290
     0
  0
SCALE
  5
3746
102
{ACAD_REACTORS
330
C2E
102
}
330
C2E
100
AcDbScale
 70
     0
300
10:1
140
10.0
141
1.0
290
     0
  0
ACDBSECTIONVIEWSTYLE
  5
DB90
102
{ACAD_XDICTIONARY
360
F168
102
}
102
{ACAD_REACTORS
330
DB8F
102
}
330
DB8F
100
AcDbModelDocViewStyle
 70
     0
  3
Metric50
290
     0
100
AcDbSectionViewStyle
 70
     0
 71
     0
 90
      102
 71
     1
340
26
 62
   256
 40
5.0
340
0
340
0
 62
   256
 40
5.0
300
I, O, Q, S, X, Z
 40
10.0
 90
        0
 40
2.5
 90
        0
 71
     2
340
2B
 90
       25
 62
   256
340
2B
 90
       50
 62
   256
 40
5.0
 40
2.5
 40
5.0
 71
     3
340
26
 62
   256
 40
5.0
 90
        0
 40
15.0
 90
        1
300
%<\AcVar ViewSectionStartId>%-%<\AcVar ViewSectionEndId>% (%<\AcVar ViewScale \f "%sn">%)
 71
     4
 62
   256
 62
   257
300
ANSI31
 40
1.0
 90
        0
290
     0
290
     0
 90
        6
 40
0.0
 40
1.570796326794896
 40
0.2617993877991494
 40
1.308996938995747
 40
-0.2617993877991494
 40
1.832595714594046
  0
TABLESTYLE
  5
32
102
{ACAD_XDICTIONARY
360
3660
102
}
102
{ACAD_REACTORS
330
31
102
}
330
31
100
AcDbTableStyle
280
     0
  3
Standard
 70
     0
 71
     0
 40
1.5
 41
1.5
280
     0
281
     0
  7
Standard
140
4.5
170
     2
 62
     0
 63
     7
283
     0
 90
      512
 91
        0
  1

274
    -2
284
     1
 64
     0
275
    -2
285
     1
 65
     0
276
    -2
286
     1
 66
     0
277
    -2
287
     1
 67
     0
278
    -2
288
     1
 68
     0
279
    -2
289
     1
 69
     0
  7
Standard
140
6.0
170
     5
 62
     0
 63
     7
283
     0
 90
      512
 91
        0
  1

274
    -2
284
     1
 64
     0
275
    -2
285
     1
 65
     0
276
    -2
286
     1
 66
     0
277
    -2
287
     1
 67
     0
278
    -2
288
     1
 68
     0
279
    -2
289
     1
 69
     0
  7
Standard
140
4.5
170
     5
 62
     0
 63
     7
283
     0
 90
      512
 91
        0
  1

274
    -2
284
     1
 64
     0
275
    -2
285
     1
 65
     0
276
    -2
286
     1
 66
     0
277
    -2
287
     1
 67
     0
278
    -2
288
     1
 68
     0
279
    -2
289
     1
 69
     0
  0
VISUALSTYLE
  5
1A
102
{ACAD_XDICTIONARY
360
F13E
102
}
102
{ACAD_REACTORS
330
14
102
}
330
14
100
AcDbVisualStyle
  2
2dWireframe
 70
     4
177
     2
291
     0
 71
     0
176
     1
 72
     2
176
     1
 73
     0
176
     1
 90
        0
176
     1
 40
0.6
176
     1
 41
30.0
176
     1
 63
     7
176
     1
 74
     1
176
     1
 91
        4
176
     1
 64
     7
176
     1
 65
   257
176
     1
 75
     1
176
     1
175
     1
176
     1
 42
1.0
176
     1
 92
        0
176
     1
 66
   257
176
     1
 43
1.0
176
     1
 76
     1
176
     1
 77
     6
176
     1
 78
     2
176
     1
 67
     7
176
     1
 79
     5
176
     1
170
     0
176
     1
171
     0
176
     1
290
     0
176
     1
 93
        1
176
     1
 44
0.0
176
     1
173
     0
176
     1
1001
ACAD
1000
AcDbSavedByObjectVersion
1070
     0
  0
VISUALSTYLE
  5
1C
102
{ACAD_XDICTIONARY
360
F142
102
}
102
{ACAD_REACTORS
330
14
102
}
330
14
100
AcDbVisualStyle
  2
3D Hidden
 70
     6
177
     2
291
     0
 71
     1
176
     1
 72
     2
176
     1
 73
     2
176
     1
 90
        0
176
     1
 40
0.6
176
     1
 41
30.0
176
     1
 63
     7
176
     1
 74
     2
176
     1
 91
        2
176
     1
 64
     7
176
     1
 65
   257
176
     1
 75
     2
176
     1
175
     1
176
     1
 42
40.0
176
     1
 92
        0
176
     1
 66
   257
176
     1
 43
1.0
176
     1
 76
     1
176
     1
 77
     6
176
     1
 78
     2
176
     1
 67
     7
176
     1
 79
     3
176
     1
170
     0
176
     1
171
     0
176
     1
290
     0
176
     1
 93
        1
176
     1
 44
0.0
176
     1
173
     0
176
     1
1001
ACAD
1000
AcDbSavedByObjectVersion
1070
     0
  0
VISUALSTYLE
  5
1B
102
{ACAD_XDICTIONARY
360
F140
102
}
102
{ACAD_REACTORS
330
14
102
}
330
14
100
AcDbVisualStyle
  2
3dWireframe
 70
     5
177
     2
291
     0
 71
     0
176
     1
 72
     2
176
     1
 73
     0
176
     1
 90
        0
176
     1
 40
0.6
176
     1
 41
30.0
176
     1
 63
     7
176
     1
 74
     1
176
     1
 91
        4
176
     1
 64
     7
176
     1
 65
   257
176
     1
 75
     1
176
     1
175
     1
176
     1
 42
1.0
176
     1
 92
        0
176
     1
 66
   257
176
     1
 43
1.0
176
     1
 76
     1
176
     1
 77
     6
176
     1
 78
     2
176
     1
 67
     7
176
     1
 79
     5
176
     1
170
     0
176
     1
171
     0
176
     1
290
     0
176
     1
 93
        1
176
     1
 44
0.0
176
     1
173
     0
176
     1
1001
ACAD
1000
AcDbSavedByObjectVersion
1070
     0
  0
VISUALSTYLE
  5
19
102
{ACAD_XDICTIONARY
360
F13C
102
}
102
{ACAD_REACTORS
330
14
102
}
330
14
100
AcDbVisualStyle
  2
Basic
 70
     7
177
     2
291
     1
 71
     1
176
     1
 72
     0
176
     1
 73
     1
176
     1
 90
        0
176
     1
 40
0.6
176
     1
 41
30.0
176
     1
 63
     7
176
     1
 74
     0
176
     1
 91
        4
176
     1
 64
     7
176
     1
 65
   257
176
     1
 75
     1
176
     1
175
     1
176
     1
 42
1.0
176
     1
 92
        8
176
     1
 66
     7
176
     1
 43
1.0
176
     1
 76
     1
176
     1
 77
     6
176
     1
 78
     2
176
     1
 67
     7
176
     1
 79
     5
176
     1
170
     0
176
     1
171
     0
176
     1
290
     0
176
     1
 93
        1
176
     1
 44
0.0
176
     1
173
     0
176
     1
1001
ACAD
1000
AcDbSavedByObjectVersion
1070
     0
  0
VISUALSTYLE
  5
20
102
{ACAD_XDICTIONARY
360
F14A
102
}
102
{ACAD_REACTORS
330
14
102
}
330
14
100
AcDbVisualStyle
  2
Brighten
 70
    12
177
     2
291
     1
 71
     2
176
     1
 72
     2
176
     1
 73
     0
176
     1
 90
        0
176
     1
 40
0.6
176
     1
 41
30.0
176
     1
 63
     7
176
     1
 74
     1
176
     1
 91
        4
176
     1
 64
     7
176
     1
 65
   257
176
     1
 75
     1
176
     1
175
     1
176
     1
 42
1.0
176
     1
 92
        8
176
     1
 66
     7
176
     1
 43
1.0
176
     1
 76
     1
176
     1
 77
     6
176
     1
 78
     2
176
     1
 67
     7
176
     1
 79
     5
176
     1
170
     0
176
     1
171
     0
176
     1
290
     0
176
     1
 93
        1
176
     1
 44
50.0
176
     1
173
     0
176
     1
1001
ACAD
1000
AcDbSavedByObjectVersion
1070
     0
  0
VISUALSTYLE
  5
24
102
{ACAD_XDICTIONARY
360
F152
102
}
102
{ACAD_REACTORS
330
14
102
}
330
14
100
AcDbVisualStyle
  2
ColorChange
 70
    16
177
     2
291
     1
 71
     2
176
     1
 72
     2
176
     1
 73
     3
176
     1
 90
        0
176
     1
 40
0.6
176
     1
 41
30.0
176
     1
 63
     8
176
     1
 74
     1
176
     1
 91
        4
176
     1
 64
     7
176
     1
 65
   257
176
     1
 75
     1
176
     1
175
     1
176
     1
 42
1.0
176
     1
 92
        8
176
     1
 66
     8
176
     1
 43
1.0
176
     1
 76
     1
176
     1
 77
     6
176
     1
 78
     2
176
     1
 67
     7
176
     1
 79
     5
176
     1
170
     0
176
     1
171
     0
176
     1
290
     0
176
     1
 93
        1
176
     1
 44
0.0
176
     1
173
     0
176
     1
1001
ACAD
1000
AcDbSavedByObjectVersion
1070
     0
  0
VISUALSTYLE
  5
1D
102
{ACAD_XDICTIONARY
360
F144
102
}
102
{ACAD_REACTORS
330
14
102
}
330
14
100
AcDbVisualStyle
  2
Conceptual
 70
     9
177
     2
291
     0
 71
     3
176
     1
 72
     2
176
     1
 73
     0
176
     1
 90
        0
176
     1
 40
0.6
176
     1
 41
30.0
176
     1
 63
     7
176
     1
 74
     2
176
     1
 91
        2
176
     1
 64
     7
176
     1
 65
   257
176
     1
 75
     1
176
     1
175
     1
176
     1
 42
40.0
176
     1
 92
        8
176
     1
 66
     7
176
     1
 43
1.0
176
     1
 76
     1
176
     1
 77
     6
176
     1
 78
     2
176
     1
 67
     7
176
     1
 79
     3
176
     1
170
     0
176
     1
171
     0
176
     1
290
     0
176
     1
 93
        1
176
     1
 44
0.0
176
     1
173
     0
176
     1
1001
ACAD
1000
AcDbSavedByObjectVersion
1070
     0
  0
VISUALSTYLE
  5
1F
102
{ACAD_XDICTIONARY
360
F148
102
}
102
{ACAD_REACTORS
330
14
102
}
330
14
100
AcDbVisualStyle
  2
Dim
 70
    11
177
     2
291
     1
 71
     2
176
     1
 72
     2
176
     1
 73
     0
176
     1
 90
        0
176
     1
 40
0.6
176
     1
 41
30.0
176
     1
 63
     7
176
     1
 74
     1
176
     1
 91
        4
176
     1
 64
     7
176
     1
 65
   257
176
     1
 75
     1
176
     1
175
     1
176
     1
 42
1.0
176
     1
 92
        8
176
     1
 66
     7
176
     1
 43
1.0
176
     1
 76
     1
176
     1
 77
     6
176
     1
 78
     2
176
     1
 67
     7
176
     1
 79
     5
176
     1
170
     0
176
     1
171
     0
176
     1
290
     0
176
     1
 93
        1
176
     1
 44
-50.0
176
     1
173
     0
176
     1
1001
ACAD
1000
AcDbSavedByObjectVersion
1070
     0
  0
VISUALSTYLE
  5
C2D
102
{ACAD_XDICTIONARY
360
F158
102
}
102
{ACAD_REACTORS
330
14
102
}
330
14
100
AcDbVisualStyle
  2
EdgeColorOff
 70
    22
177
     2
291
     1
 71
     2
176
     0
 72
     2
176
     0
 73
     0
176
     0
 90
        0
176
     0
 40
0.6
176
     0
 41
30.0
176
     0
 63
     7
176
     0
 74
     1
176
     0
 91
        4
176
     0
 64
     7
176
     0
 65
   257
176
     0
 75
     1
176
     0
175
     1
176
     0
 42
1.0
176
     0
 92
        8
176
     2
 66
     7
176
     0
 43
1.0
176
     0
 76
     1
176
     0
 77
     6
176
     0
 78
     2
176
     0
 67
     7
176
     0
 79
     5
176
     0
170
     0
176
     0
171
     0
176
     0
290
     0
176
     0
 93
        1
176
     0
 44
0.0
176
     0
173
     0
176
     0
1001
ACAD
1000
AcDbSavedByObjectVersion
1070
     0
  0
VISUALSTYLE
  5
23
102
{ACAD_XDICTIONARY
360
F150
102
}
102
{ACAD_REACTORS
330
14
102
}
330
14
100
AcDbVisualStyle
  2
Facepattern
 70
    15
177
     2
291
     1
 71
     2
176
     1
 72
     2
176
     1
 73
     0
176
     1
 90
        0
176
     1
 40
0.6
176
     1
 41
30.0
176
     1
 63
     7
176
     1
 74
     1
176
     1
 91
        4
176
     1
 64
     7
176
     1
 65
   257
176
     1
 75
     1
176
     1
175
     1
176
     1
 42
1.0
176
     1
 92
        8
176
     1
 66
     7
176
     1
 43
1.0
176
     1
 76
     1
176
     1
 77
     6
176
     1
 78
     2
176
     1
 67
     7
176
     1
 79
     5
176
     1
170
     0
176
     1
171
     0
176
     1
290
     0
176
     1
 93
        1
176
     1
 44
0.0
176
     1
173
     0
176
     1
1001
ACAD
1000
AcDbSavedByObjectVersion
1070
     0
  0
VISUALSTYLE
  5
15
102
{ACAD_XDICTIONARY
360
F134
102
}
102
{ACAD_REACTORS
330
14
102
}
330
14
100
AcDbVisualStyle
  2
Flat
 70
     0
177
     2
291
     1
 71
     2
176
     1
 72
     1
176
     1
 73
     1
176
     1
 90
        2
176
     1
 40
0.6
176
     1
 41
30.0
176
     1
 63
     7
176
     1
 74
     0
176
     1
 91
        4
176
     1
 64
     7
176
     1
 65
   257
176
     1
 75
     1
176
     1
175
     1
176
     1
 42
1.0
176
     1
 92
        8
176
     1
 66
     7
176
     1
 43
1.0
176
     1
 76
     1
176
     1
 77
     6
176
     1
 78
     2
176
     1
 67
     7
176
     1
 79
     5
176
     1
170
     0
176
     1
171
     0
176
     1
290
     0
176
     1
 93
       13
176
     1
 44
0.0
176
     1
173
     0
176
     1
1001
ACAD
1000
AcDbSavedByObjectVersion
1070
     0
  0
VISUALSTYLE
  5
16
102
{ACAD_XDICTIONARY
360
F136
102
}
102
{ACAD_REACTORS
330
14
102
}
330
14
100
AcDbVisualStyle
  2
FlatWithEdges
 70
     1
177
     2
291
     1
 71
     2
176
     1
 72
     1
176
     1
 73
     1
176
     1
 90
        2
176
     1
 40
0.6
176
     1
 41
30.0
176
     1
 63
     7
176
     1
 74
     1
176
     1
 91
        4
176
     1
 64
     7
176
     1
 65
   257
176
     1
 75
     1
176
     1
175
     1
176
     1
 42
1.0
176
     1
 92
        0
176
     1
 66
   257
176
     1
 43
1.0
176
     1
 76
     1
176
     1
 77
     6
176
     1
 78
     2
176
     1
 67
     7
176
     1
 79
     5
176
     1
170
     0
176
     1
171
     0
176
     1
290
     0
176
     1
 93
       13
176
     1
 44
0.0
176
     1
173
     0
176
     1
1001
ACAD
1000
AcDbSavedByObjectVersion
1070
     0
  0
VISUALSTYLE
  5
17
102
{ACAD_XDICTIONARY
360
F138
102
}
102
{ACAD_REACTORS
330
14
102
}
330
14
100
AcDbVisualStyle
  2
Gouraud
 70
     2
177
     2
291
     1
 71
     2
176
     1
 72
     2
176
     1
 73
     1
176
     1
 90
        2
176
     1
 40
0.6
176
     1
 41
30.0
176
     1
 63
     7
176
     1
 74
     0
176
     1
 91
        4
176
     1
 64
     7
176
     1
 65
   257
176
     1
 75
     1
176
     1
175
     1
176
     1
 42
1.0
176
     1
 92
        0
176
     1
 66
     7
176
     1
 43
1.0
176
     1
 76
     1
176
     1
 77
     6
176
     1
 78
     2
176
     1
 67
     7
176
     1
 79
     5
176
     1
170
     0
176
     1
171
     0
176
     1
290
     0
176
     1
 93
       13
176
     1
 44
0.0
176
     1
173
     0
176
     1
1001
ACAD
1000
AcDbSavedByObjectVersion
1070
     0
  0
VISUALSTYLE
  5
18
102
{ACAD_XDICTIONARY
360
F13A
102
}
102
{ACAD_REACTORS
330
14
102
}
330
14
100
AcDbVisualStyle
  2
GouraudWithEdges
 70
     3
177
     2
291
     1
 71
     2
176
     1
 72
     2
176
     1
 73
     1
176
     1
 90
        2
176
     1
 40
0.6
176
     1
 41
30.0
176
     1
 63
     7
176
     1
 74
     1
176
     1
 91
        4
176
     1
 64
     7
176
     1
 65
   257
176
     1
 75
     1
176
     1
175
     1
176
     1
 42
1.0
176
     1
 92
        0
176
     1
 66
   257
176
     1
 43
1.0
176
     1
 76
     1
176
     1
 77
     6
176
     1
 78
     2
176
     1
 67
     7
176
     1
 79
     5
176
     1
170
     0
176
     1
171
     0
176
     1
290
     0
176
     1
 93
       13
176
     1
 44
0.0
176
     1
173
     0
176
     1
1001
ACAD
1000
AcDbSavedByObjectVersion
1070
     0
  0
VISUALSTYLE
  5
DB89
102
{ACAD_XDICTIONARY
360
F15C
102
}
102
{ACAD_REACTORS
330
14
102
}
330
14
100
AcDbVisualStyle
  2
Hidden
 70
     6
177
     2
291
     0
 71
     1
176
     1
 72
     2
176
     1
 73
     2
176
     1
 90
        0
176
     1
 40
0.6
176
     1
 41
30.0
176
     1
 63
     7
421
 16777215
176
     1
 74
     2
176
     1
 91
        2
176
     1
 64
     7
176
     1
 65
   257
176
     1
 75
     2
176
     1
175
     1
176
     1
 42
40.0
176
     1
 92
        0
176
     1
 66
   257
176
     1
 43
1.0
176
     1
 76
     1
176
     1
 77
     6
176
     1
 78
     2
176
     1
 67
     7
176
     1
 79
     3
176
     1
170
     0
176
     1
171
     0
176
     1
290
     0
176
     1
 93
        1
176
     1
 44
0.0
176
     1
173
     0
176
     1
1001
ACAD
1000
AcDbSavedByObjectVersion
1070
     0
  0
VISUALSTYLE
  5
C2B
102
{ACAD_XDICTIONARY
360
F154
102
}
102
{ACAD_REACTORS
330
14
102
}
330
14
100
AcDbVisualStyle
  2
JitterOff
 70
    20
177
     2
291
     1
 71
     2
176
     0
 72
     2
176
     0
 73
     0
176
     0
 90
        0
176
     0
 40
0.6
176
     0
 41
30.0
176
     0
 63
     7
176
     0
 74
     1
176
     0
 91
        4
176
     0
 64
     7
176
     0
 65
   257
176
     0
 75
     1
176
     0
175
     1
176
     0
 42
1.0
176
     0
 92
       10
176
     2
 66
     7
176
     0
 43
1.0
176
     0
 76
     1
176
     0
 77
     6
176
     0
 78
     2
176
     0
 67
     7
176
     0
 79
     5
176
     0
170
     0
176
     0
171
     0
176
     0
290
     0
176
     0
 93
        1
176
     0
 44
0.0
176
     0
173
     0
176
     0
1001
ACAD
1000
AcDbSavedByObjectVersion
1070
     0
  0
VISUALSTYLE
  5
22
102
{ACAD_XDICTIONARY
360
F14E
102
}
102
{ACAD_REACTORS
330
14
102
}
330
14
100
AcDbVisualStyle
  2
Linepattern
 70
    14
177
     2
291
     1
 71
     2
176
     1
 72
     2
176
     1
 73
     0
176
     1
 90
        0
176
     1
 40
0.6
176
     1
 41
30.0
176
     1
 63
     7
176
     1
 74
     1
176
     1
 91
        4
176
     1
 64
     7
176
     1
 65
   257
176
     1
 75
     7
176
     1
175
     7
176
     1
 42
1.0
176
     1
 92
        8
176
     1
 66
     7
176
     1
 43
1.0
176
     1
 76
     1
176
     1
 77
     6
176
     1
 78
     2
176
     1
 67
     7
176
     1
 79
     5
176
     1
170
     0
176
     1
171
     0
176
     1
290
     0
176
     1
 93
        1
176
     1
 44
0.0
176
     1
173
     0
176
     1
1001
ACAD
1000
AcDbSavedByObjectVersion
1070
     0
  0
VISUALSTYLE
  5
C2C
102
{ACAD_XDICTIONARY
360
F156
102
}
102
{ACAD_REACTORS
330
14
102
}
330
14
100
AcDbVisualStyle
  2
OverhangOff
 70
    21
177
     2
291
     1
 71
     2
176
     0
 72
     2
176
     0
 73
     0
176
     0
 90
        0
176
     0
 40
0.6
176
     0
 41
30.0
176
     0
 63
     7
176
     0
 74
     1
176
     0
 91
        4
176
     0
 64
     7
176
     0
 65
   257
176
     0
 75
     1
176
     0
175
     1
176
     0
 42
1.0
176
     0
 92
        9
176
     2
 66
     7
176
     0
 43
1.0
176
     0
 76
     1
176
     0
 77
     6
176
     0
 78
     2
176
     0
 67
     7
176
     0
 79
     5
176
     0
170
     0
176
     0
171
     0
176
     0
290
     0
176
     0
 93
        1
176
     0
 44
0.0
176
     0
173
     0
176
     0
1001
ACAD
1000
AcDbSavedByObjectVersion
1070
     0
  0
VISUALSTYLE
  5
1E
102
{ACAD_XDICTIONARY
360
F146
102
}
102
{ACAD_REACTORS
330
14
102
}
330
14
100
AcDbVisualStyle
  2
Realistic
 70
     8
177
     2
291
     0
 71
     2
176
     1
 72
     2
176
     1
 73
     0
176
     1
 90
        0
176
     1
 40
0.6
176
     1
 41
30.0
176
     1
 63
     7
176
     1
 74
     1
176
     1
 91
        0
176
     1
 64
     7
176
     1
 65
   257
176
     1
 75
     1
176
     1
175
     1
176
     1
 42
1.0
176
     1
 92
        8
176
     1
 66
     8
176
     1
 43
1.0
176
     1
 76
     1
176
     1
 77
     6
176
     1
 78
     2
176
     1
 67
     7
176
     1
 79
     5
176
     1
170
     0
176
     1
171
     0
176
     1
290
     0
176
     1
 93
       13
176
     1
 44
0.0
176
     1
173
     0
176
     1
1001
ACAD
1000
AcDbSavedByObjectVersion
1070
     0
  0
VISUALSTYLE
  5
DB8E
102
{ACAD_XDICTIONARY
360
F166
102
}
102
{ACAD_REACTORS
330
14
102
}
330
14
100
AcDbVisualStyle
  2
Shaded
 70
    27
177
     2
291
     0
 71
     2
176
     1
 72
     2
176
     1
 73
     1
176
     1
 90
        2
176
     1
 40
0.6
176
     1
 41
30.0
176
     1
 63
     7
421
 16777215
176
     1
 74
     0
176
     1
 91
        4
176
     1
 64
     7
176
     1
 65
   257
176
     1
 75
     1
176
     1
175
     1
176
     1
 42
1.0
176
     1
 92
        8
176
     1
 66
   257
176
     1
 43
1.0
176
     1
 76
     1
176
     1
 77
     6
176
     1
 78
     2
176
     1
 67
     8
425
  7895160
176
     1
 79
     3
176
     1
170
     0
176
     1
171
     0
176
     1
290
     0
176
     1
 93
        5
176
     1
 44
0.0
176
     1
173
     0
176
     1
1001
ACAD
1000
AcDbSavedByObjectVersion
1070
     0
  0
VISUALSTYLE
  5
DB8D
102
{ACAD_XDICTIONARY
360
F164
102
}
102
{ACAD_REACTORS
330
14
102
}
330
14
100
AcDbVisualStyle
  2
Shaded with edges
 70
    26
177
     2
291
     0
 71
     2
176
     1
 72
     2
176
     1
 73
     1
176
     1
 90
        2
176
     1
 40
0.6
176
     1
 41
30.0
176
     1
 63
     7
421
 16777215
176
     1
 74
     1
176
     1
 91
        2
176
     1
 64
     7
176
     1
 65
   257
176
     1
 75
     2
176
     1
175
     1
176
     1
 42
1.0
176
     1
 92
        8
176
     1
 66
   257
176
     1
 43
1.0
176
     1
 76
     1
176
     1
 77
     6
176
     1
 78
     2
176
     1
 67
     7
176
     1
 79
     3
176
     1
170
     0
176
     1
171
     0
176
     1
290
     0
176
     1
 93
        5
176
     1
 44
0.0
176
     1
173
     0
176
     1
1001
ACAD
1000
AcDbSavedByObjectVersion
1070
     0
  0
VISUALSTYLE
  5
DB8A
102
{ACAD_XDICTIONARY
360
F15E
102
}
102
{ACAD_REACTORS
330
14
102
}
330
14
100
AcDbVisualStyle
  2
Shades of Gray
 70
    23
177
     2
291
     0
 71
     2
176
     1
 72
     2
176
     1
 73
     3
176
     1
 90
        0
176
     1
 40
0.6
176
     1
 41
30.0
176
     1
 63
     7
421
 16777215
176
     1
 74
     2
176
     1
 91
        2
176
     1
 64
     7
176
     1
 65
     7
176
     1
 75
     1
176
     1
175
     1
176
     1
 42
40.0
176
     1
 92
        8
176
     1
 66
     7
176
     1
 43
1.0
176
     1
 76
     1
176
     1
 77
     6
176
     1
 78
     2
176
     1
 67
     7
176
     1
 79
     3
176
     1
170
     0
176
     1
171
     0
176
     1
290
     0
176
     1
 93
        1
176
     1
 44
0.0
176
     1
173
     0
176
     1
1001
ACAD
1000
AcDbSavedByObjectVersion
1070
     0
  0
VISUALSTYLE
  5
DB8B
102
{ACAD_XDICTIONARY
360
F160
102
}
102
{ACAD_REACTORS
330
14
102
}
330
14
100
AcDbVisualStyle
  2
Sketchy
 70
    24
177
     2
291
     0
 71
     1
176
     1
 72
     2
176
     1
 73
     2
176
     1
 90
        0
176
     1
 40
0.6
176
     1
 41
30.0
176
     1
 63
     7
421
 16777215
176
     1
 74
     2
176
     1
 91
        2
176
     1
 64
     7
176
     1
 65
     7
176
     1
 75
     1
176
     1
175
     1
176
     1
 42
40.0
176
     1
 92
       11
176
     1
 66
     7
176
     1
 43
1.0
176
     1
 76
     1
176
     1
 77
     6
176
     1
 78
     2
176
     1
 67
     7
176
     1
 79
     6
176
     1
170
     0
176
     1
171
     0
176
     1
290
     0
176
     1
 93
        1
176
     1
 44
0.0
176
     1
173
     0
176
     1
1001
ACAD
1000
AcDbSavedByObjectVersion
1070
     0
  0
VISUALSTYLE
  5
21
102
{ACAD_XDICTIONARY
360
F14C
102
}
102
{ACAD_REACTORS
330
14
102
}
330
14
100
AcDbVisualStyle
  2
Thicken
 70
    13
177
     2
291
     1
 71
     2
176
     1
 72
     2
176
     1
 73
     0
176
     1
 90
        0
176
     1
 40
0.6
176
     1
 41
30.0
176
     1
 63
     7
176
     1
 74
     1
176
     1
 91
        4
176
     1
 64
     7
176
     1
 65
   257
176
     1
 75
     1
176
     1
175
     1
176
     1
 42
1.0
176
     1
 92
       12
176
     1
 66
     7
176
     1
 43
1.0
176
     1
 76
     1
176
     1
 77
     6
176
     1
 78
     2
176
     1
 67
     7
176
     1
 79
     5
176
     1
170
     0
176
     1
171
     0
176
     1
290
     0
176
     1
 93
        1
176
     1
 44
0.0
176
     1
173
     0
176
     1
1001
ACAD
1000
AcDbSavedByObjectVersion
1070
     0
  0
VISUALSTYLE
  5
DB88
102
{ACAD_XDICTIONARY
360
F15A
102
}
102
{ACAD_REACTORS
330
14
102
}
330
14
100
AcDbVisualStyle
  2
Wireframe
 70
     5
177
     2
291
     0
 71
     0
176
     1
 72
     2
176
     1
 73
     0
176
     1
 90
        0
176
     1
 40
0.6
176
     1
 41
30.0
176
     1
 63
     7
421
 16777215
176
     1
 74
     1
176
     1
 91
        4
176
     1
 64
     7
176
     1
 65
   257
176
     1
 75
     1
176
     1
175
     1
176
     1
 42
1.0
176
     1
 92
        0
176
     1
 66
   257
176
     1
 43
1.0
176
     1
 76
     1
176
     1
 77
     6
176
     1
 78
     2
176
     1
 67
     7
176
     1
 79
     3
176
     1
170
     0
176
     1
171
     0
176
     1
290
     0
176
     1
 93
        1
176
     1
 44
0.0
176
     1
173
     0
176
     1
1001
ACAD
1000
AcDbSavedByObjectVersion
1070
     0
  0
VISUALSTYLE
  5
DB8C
102
{ACAD_XDICTIONARY
360
F162
102
}
102
{ACAD_REACTORS
330
14
102
}
330
14
100
AcDbVisualStyle
  2
X-Ray
 70
    25
177
     2
291
     0
 71
     2
176
     1
 72
     2
176
     1
 73
     1
176
     1
 90
        1
176
     1
 40
0.5
176
     1
 41
30.0
176
     1
 63
     7
421
 16777215
176
     1
 74
     1
176
     1
 91
        0
176
     1
 64
     7
176
     1
 65
   257
176
     1
 75
     1
176
     1
175
     1
176
     1
 42
1.0
176
     1
 92
        8
176
     1
 66
     7
176
     1
 43
1.0
176
     1
 76
     1
176
     1
 77
     6
176
     1
 78
     2
176
     1
 67
     7
176
     1
 79
     3
176
     1
170
     0
176
     1
171
     0
176
     1
290
     0
176
     1
 93
       13
176
     1
 44
0.0
176
     1
173
     0
176
     1
1001
ACAD
1000
AcDbSavedByObjectVersion
1070
     0
  0
DICTIONARYVAR
  5
3714
102
{ACAD_REACTORS
330
42
102
}
330
42
100
DictionaryVariables
280
     0
  1
1:1
  0
DICTIONARYVAR
  5
3713
102
{ACAD_REACTORS
330
42
102
}
330
42
100
DictionaryVariables
280
     0
  1
部品図用_1：1
  0
DICTIONARYVAR
  5
43
102
{ACAD_REACTORS
330
42
102
}
330
42
100
DictionaryVariables
280
     0
  1
STANDARD
  0
DICTIONARYVAR
  5
DBE1
102
{ACAD_REACTORS
330
42
102
}
330
42
100
DictionaryVariables
280
     0
  1
Metric50
  0
DICTIONARYVAR
  5
DBE2
102
{ACAD_REACTORS
330
42
102
}
330
42
100
DictionaryVariables
280
     0
  1
Metric50
  0
DICTIONARYVAR
  5
3719
102
{ACAD_REACTORS
330
42
102
}
330
42
100
DictionaryVariables
280
     0
  1
2
  0
DICTIONARYVAR
  5
3717
102
{ACAD_REACTORS
330
42
102
}
330
42
100
DictionaryVariables
280
     0
  1
1
  0
DICTIONARYVAR
  5
3716
102
{ACAD_REACTORS
330
42
102
}
330
42
100
DictionaryVariables
280
     0
  1
0
  0
DICTIONARYVAR
  5
93DF
102
{ACAD_REACTORS
330
42
102
}
330
42
100
DictionaryVariables
280
     0
  1
1
  0
DICTIONARYVAR
  5
93E0
102
{ACAD_REACTORS
330
42
102
}
330
42
100
DictionaryVariables
280
     0
  1
15
  0
DICTIONARYVAR
  5
93DE
102
{ACAD_REACTORS
330
42
102
}
330
42
100
DictionaryVariables
280
     0
  1
0
  0
DICTIONARYVAR
  5
B1DD
102
{ACAD_REACTORS
330
42
102
}
330
42
100
DictionaryVariables
280
     0
  1
1.000000
  0
DICTIONARYVAR
  5
93DD
102
{ACAD_REACTORS
330
42
102
}
330
42
100
DictionaryVariables
280
     0
  1
0
  0
DICTIONARYVAR
  5
3715
102
{ACAD_REACTORS
330
42
102
}
330
42
100
DictionaryVariables
280
     0
  1
127
  0
DICTIONARY
  5
F16A
330
DB92
100
AcDbDictionary
280
     1
281
     1
  3
ACAD_XREC_ROUNDTRIP
360
F16B
  0
DICTIONARY
  5
92F1
330
3A
100
AcDbDictionary
280
     1
281
     1
  3
ADSK_XREC_LAYOUTTHUMBNAIL
360
F0D8
  0
DICTIONARY
  5
55B
330
36
100
AcDbDictionary
280
     1
281
     1
  0
DICTIONARY
  5
F168
330
DB90
100
AcDbDictionary
280
     1
281
     1
  3
ACAD_XREC_ROUNDTRIP
360
F169
  0
DICTIONARY
  5
3660
330
32
100
AcDbDictionary
280
     1
281
     1
  3
ACAD_ROUNDTRIP_2008_TABLESTYLE_CELLSTYLEMAP
360
F132
  0
DICTIONARY
  5
F13E
330
1A
100
AcDbDictionary
280
     1
281
     1
  3
ACAD_XREC_ROUNDTRIP
360
F13F
  0
DICTIONARY
  5
F142
330
1C
100
AcDbDictionary
280
     1
281
     1
  3
ACAD_XREC_ROUNDTRIP
360
F143
  0
DICTIONARY
  5
F140
330
1B
100
AcDbDictionary
280
     1
281
     1
  3
ACAD_XREC_ROUNDTRIP
360
F141
  0
DICTIONARY
  5
F13C
330
19
100
AcDbDictionary
280
     1
281
     1
  3
ACAD_XREC_ROUNDTRIP
360
F13D
  0
DICTIONARY
  5
F14A
330
20
100
AcDbDictionary
280
     1
281
     1
  3
ACAD_XREC_ROUNDTRIP
360
F14B
  0
DICTIONARY
  5
F152
330
24
100
AcDbDictionary
280
     1
281
     1
  3
ACAD_XREC_ROUNDTRIP
360
F153
  0
DICTIONARY
  5
F144
330
1D
100
AcDbDictionary
280
     1
281
     1
  3
ACAD_XREC_ROUNDTRIP
360
F145
  0
DICTIONARY
  5
F148
330
1F
100
AcDbDictionary
280
     1
281
     1
  3
ACAD_XREC_ROUNDTRIP
360
F149
  0
DICTIONARY
  5
F158
330
C2D
100
AcDbDictionary
280
     1
281
     1
  3
ACAD_XREC_ROUNDTRIP
360
F159
  0
DICTIONARY
  5
F150
330
23
100
AcDbDictionary
280
     1
281
     1
  3
ACAD_XREC_ROUNDTRIP
360
F151
  0
DICTIONARY
  5
F134
330
15
100
AcDbDictionary
280
     1
281
     1
  3
ACAD_XREC_ROUNDTRIP
360
F135
  0
DICTIONARY
  5
F136
330
16
100
AcDbDictionary
280
     1
281
     1
  3
ACAD_XREC_ROUNDTRIP
360
F137
  0
DICTIONARY
  5
F138
330
17
100
AcDbDictionary
280
     1
281
     1
  3
ACAD_XREC_ROUNDTRIP
360
F139
  0
DICTIONARY
  5
F13A
330
18
100
AcDbDictionary
280
     1
281
     1
  3
ACAD_XREC_ROUNDTRIP
360
F13B
  0
DICTIONARY
  5
F15C
330
DB89
100
AcDbDictionary
280
     1
281
     1
  3
ACAD_XREC_ROUNDTRIP
360
F15D
  0
DICTIONARY
  5
F154
330
C2B
100
AcDbDictionary
280
     1
281
     1
  3
ACAD_XREC_ROUNDTRIP
360
F155
  0
DICTIONARY
  5
F14E
330
22
100
AcDbDictionary
280
     1
281
     1
  3
ACAD_XREC_ROUNDTRIP
360
F14F
  0
DICTIONARY
  5
F156
330
C2C
100
AcDbDictionary
280
     1
281
     1
  3
ACAD_XREC_ROUNDTRIP
360
F157
  0
DICTIONARY
  5
F146
330
1E
100
AcDbDictionary
280
     1
281
     1
  3
ACAD_XREC_ROUNDTRIP
360
F147
  0
DICTIONARY
  5
F166
330
DB8E
100
AcDbDictionary
280
     1
281
     1
  3
ACAD_XREC_ROUNDTRIP
360
F167
  0
DICTIONARY
  5
F164
330
DB8D
100
AcDbDictionary
280
     1
281
     1
  3
ACAD_XREC_ROUNDTRIP
360
F165
  0
DICTIONARY
  5
F15E
330
DB8A
100
AcDbDictionary
280
     1
281
     1
  3
ACAD_XREC_ROUNDTRIP
360
F15F
  0
DICTIONARY
  5
F160
330
DB8B
100
AcDbDictionary
280
     1
281
     1
  3
ACAD_XREC_ROUNDTRIP
360
F161
  0
DICTIONARY
  5
F14C
330
21
100
AcDbDictionary
280
     1
281
     1
  3
ACAD_XREC_ROUNDTRIP
360
F14D
  0
DICTIONARY
  5
F15A
330
DB88
100
AcDbDictionary
280
     1
281
     1
  3
ACAD_XREC_ROUNDTRIP
360
F15B
  0
DICTIONARY
  5
F162
330
DB8C
100
AcDbDictionary
280
     1
281
     1
  3
ACAD_XREC_ROUNDTRIP
360
F163
  0
XRECORD
  5
F16B
102
{ACAD_REACTORS
330
F16A
102
}
330
F16A
100
AcDbXrecord
280
     1
102
DISPLAYNAME
  1
Metric50
102
FLAGS
 90
        0
  0
XRECORD
  5
F0D8
102
{ACAD_REACTORS
330
92F1
102
}
330
92F1
100
AcDbXrecord
280
     1
310
28000000000100007B0000000100080000000000007B0000010000000100000000010000000000003028210000000052C8C8C8FF000000FF000000FF000000FF000000FF000000FF000000FF000000FF000000FF330000FF660000FF990000FFCC0000FFFF0000FF003300FF333300FF663300FF993300FFCC3300FFFF3300
310
FF006600FF336600FF666600FF996600FFCC6600FFFF6600FF009900FF339900FF669900FF999900FFCC9900FFFF9900FF00CC00FF33CC00FF66CC00FF99CC00FFCCCC00FFFFCC00FF00FF00FF33FF00FF66FF00FF99FF00FFCCFF00FFFFFF00FF000033FF330033FF660033FF990033FFCC0033FFFF0033FF003333FF3333
310
33FF663333FF993333FFCC3333FFFF3333FF006633FF336633FF666633FF996633FFCC6633FFFF6633FF009933FF339933FF669933FF999933FFCC9933FFFF9933FF00CC33FF33CC33FF66CC33FF99CC33FFCCCC33FFFFCC33FF00FF33FF33FF33FF66FF33FF99FF33FFCCFF33FFFFFF33FF000066FF330066FF660066FF99
310
0066FFCC0066FFFF0066FF003366FF333366FF663366FF993366FFCC3366FFFF3366FF006666FF336666FF666666FF996666FFCC6666FFFF6666FF009966FF339966FF669966FF999966FFCC9966FFFF9966FF00CC66FF33CC66FF66CC66FF99CC66FFCCCC66FFFFCC66FF00FF66FF33FF66FF66FF66FF99FF66FFCCFF66FF
310
FFFF66FF000099FF330099FF660099FF990099FFCC0099FFFF0099FF003399FF333399FF663399FF993399FFCC3399FFFF3399FF006699FF336699FF666699FF996699FFCC6699FFFF6699FF009999FF339999FF669999FF999999FFCC9999FFFF9999FF00CC99FF33CC99FF66CC99FF99CC99FFCCCC99FFFFCC99FF00FF99
310
FF33FF99FF66FF99FF99FF99FFCCFF99FFFFFF99FF0000CCFF3300CCFF6600CCFF9900CCFFCC00CCFFFF00CCFF0033CCFF3333CCFF6633CCFF9933CCFFCC33CCFFFF33CCFF0066CCFF3366CCFF6666CCFF9966CCFFCC66CCFFFF66CCFF0099CCFF3399CCFF6699CCFF9999CCFFCC99CCFFFF99CCFF00CCCCFF33CCCCFF66CC
310
CCFF99CCCCFFCCCCCCFFFFCCCCFF00FFCCFF33FFCCFF66FFCCFF99FFCCFFCCFFCCFFFFFFCCFF0000FFFF3300FFFF6600FFFF9900FFFFCC00FFFFFF00FFFF0033FFFF3333FFFF6633FFFF9933FFFFCC33FFFFFF33FFFF0066FFFF3366FFFF6666FFFF9966FFFFCC66FFFFFF66FFFF0099FFFF3399FFFF6699FFFF9999FFFFCC
310
99FFFFFF99FFFF00CCFFFF33CCFFFF66CCFFFF99CCFFFFCCCCFFFFFFCCFFFF00FFFFFF33FFFFFF66FFFFFF99FFFFFFCCFFFFFFFFFFFFFF000000FF0D0D0DFF1A1A1AFF282828FF353535FF434343FF505050FF5D5D5DFF6B6B6BFF787878FF868686FF939393FFA1A1A1FFAEAEAEFFBBBBBBFFC9C9C9FFD6D6D6FFE4E4E4FF
310
F1F1F1FFFFFFFFFF000000FF000000FF000000FF000000FF000000FF000000FF000000FF000000FF000000FF000000FF00000000000000000000000000000000000000000000000000000000000000000000000000000000000000000000000000000000000000000000000000000000000000000000000000000000000000
310
00000000000000000000000000000000000000000000000000000000000000000000000000000000000000000000000000000000000000000000000000000000000000000000000000000000000000000000000000000000000000000000000000000000000000000000000000000000000000000000000000000000000000
310
00000000000000000000000000000000000000000000000000000000000000000000000000000000000000000000000000000000000000000000000000000000000000000000000000000000000000000000000000000000000000000000000000000000000000000000000000000000000000000000000000000000000000
310
00000000000000000000000000000000000000000000000000000000000000000000000000000000000000000000000000000000000000000000000000000000000000000000000000000000000000000000000000000000000000000000000000000000000000000000000000000000000000000000000000000000000000
310
00000000000000000000000000000000000000000000000000000000000000000000000000000000000000000000000000000000000000000000000000000000000000000000000000000000000000000000000000000000000000000000000000000000000000000000000000000000000000000000000000000000000000
310
00000000000000000000000000000000000000000000000000000000000000000000000000000000000000000000000000000000000000000000000000000000000000000000000000000000000000000000000000000000000000000000000000000000000000000000000000000000000000000000000000000000000000
310
00000000000000000000000000000000000000000000000000000000000000000000000000000000000000000000000000000000000000000000000000000000000000000000000000000000000000000000000000000000000000000000000000000000000000000000000000000000000000000000000000000000000000
310
00000000000000000000000000000000000000000000000000000000000000000000000000000000000000000000000000000000000000000000000000000000000000000000000000000000000000000000000000000000000000000000000000000000000000000000000000000000000000000000000000000000000000
310
00000000000000000000000000000000000000000000000000000000000000000000000000000000000000000000000000000000000000000000000000000000000000000000000000000000000000000000000000000000000000000000000000000000000000000000000000000000000000000000000000000000000000
310
00000000000000000000000000000000000000000000000000000000000000000000000000000000000000000000000000000000000000000000000000000000000000000000000000000000000000000000000000000000000000000000000000000000000000000000000000000000000000000000000000000000000000
310
00000000000000000000000000000000000000000000000000000000000000000000000000000000000000000000000000000000000000000000000000000000000000000000000000000000000000000000000000000000000000000000000000000000000000000000000000000000000000000000000000000000000000
310
00000000000000000000000000000000000000000000000000000000000000000000000000000000000000000000000000000000000000000000000000000000000000000000000000000000000000000000000000000000000000000000000000000000000000000000000000000000000000000000000000000000000000
310
00000000000000000000000000000000000000000000000000000000000000000000000000000000000000000000000000000000000000000000000000000000000000000000000000000000000000000000000000000000000000000000000000000000000000000000000000000000000000000000000000000000000000
310
00000000000000000000000000000000000000000000000000000000000000000000000000000000000000000000000000000000000000000000000000000000000000000000000000000000000000000000000000000000000000000000000000000000000000000000000000000000000000000000000000000000000000
310
00000000000000000000000000000000000000000000000000000000000000000000000000000000000000000000000000000000000000000000000000000000000000000000000000000000000000000000000000000000000000000000000000000000000000000000000000000000000000000000000000000000000000
310
00000000000000000000000000000000000000000000000000000000000000000000000000000000000000000000000000000000000000000000000000000000000000000000000000000000000000000000000000000000000000000000000000000000000000000000000000000000000000000000000000000000000000
310
00000000000000000000000000000000000000000000000000000000000000000000000000000000000000000000000000000000000000000000000000000000000000000000000000000000000000000000000000000000000000000000000000000000000000000000000000000000000000000000000000000000000000
310
00000000000000000000000000000000000000000000000000000000000000000000000000000000000000000000000000000000000000000000000000000000000000000000000000000000000000000000000000000000000000000000000000000000000000000000000000000000000000000000000000000000000000
310
00000000000000000000000000000000000000000000000000000000000000000000000000000000000000000000000000000000000000000000000000000000000000000000000000000000000000000000000000000000000000000000000000000000000000000000000000000000000000000000000000000000000000
310
00000000000000000000000000000000000000000000000000000000000000000000000000000000000000000000000000000000000000000000000000000000000000000000000000000000000000000000000000000000000000000000000000000000000000000000000000000000000000000000000000000000000000
310
00000000000000000000000000000000000000000000000000000000000000000000000000000000000000000000000000000000000000000000000000000000000000000000000000000000000000000000000000000000000000000000000000000000000000000000000000000000000000000000000000000000000000
310
00000000000000000000000000000000000000000000000000000000000000000000000000000000000000000000000000000000000000000000000000000000000000000000000000000000000000000000000000000000000000000000000000000000000000000000000000000000000000000000000000000000000000
310
00000000000000000000000000000000000000000000000000000000000000000000000000000000000000000000000000000000000000000000000000000000000000000000000000000000000000000000000000000000000000000000000000000000000000000000000000000000000000000000000000000000000000
310
00000000000000000000000000000000000000000000000000000000000000000000000000000000000000000000000000000000000000000000000000000000000000000000000000000000000000000000000000000000000000000000000000000000000000000000000000000000000000000000000000000000000000
310
00000000000000000000000000000000000000000000000000000000000000000000000000000000000000000000000000000000000000000000000000000000000000000000000000000000000000000000000000000000000000000000000000000000000000000000000000000000000000000000000000000000000000
310
00000000000000000000000000000000000000000000000000000000000000000000000000000000000000000000000000000000000000000000000000000000000000000000000000000000000000000000000000000000000000000000000000000000000000000000000000000000000000000000000000000000000000
310
00000000000000000000000000000000000000000000000000000000000000000000000000000000000000000000000000000000000000000000000000000000000000000000000000000000000000000000000000000000000000000000000000000000000000000000000000000000000000000000000000000000000000
310
00000000000000000000000000000000000000000000000000000000000000000000000000000000000000000000000000000000000000000000000000000000000000000000000000000000000000000000000000000000000000000000000000000000000000000000000000000000000000000000000000000000000000
310
00000000000000000000000000000000000000000000000000000000000000000000000000000000000000000000000000000000000000000000000000000000000000000000000000000000000000000000000000000000000000000000000000000000000000000000000000000000000000000000000000000000000000
310
00000000000000000000000000000000000000000000000000000000000000000000000000000000000000000000000000000000000000000000000000000000000000000000000000000000000000000000000000000000000000000000000000000000000000000000000000000000000000000000000000000000000000
310
00000000000000000000000000000000000000000000000000000000000000000000000000000000000000000000000000000000000000000000000000000000000000000000000000000000000000000000000000000000000000000000000000000000000000000000000000000000000000000000000000000000000000
310
00000000000000000000000000000000000000000000000000000000000000000000000000000000000000000000000000000000000000000000000000000000000000000000000000000000000000000000000000000000000000000000000000000000000000000000000000000000000000000000000000000000000000
310
00000000000000000000000000000000000000000000000000000000000000000000000000000000000000000000000000000000000000000000000000000000000000000000000000000000000000000000000000000000000000000000000000000000000000000000000000000000000000000000000000000000000000
310
00000000000000000000000000000000000000000000000000000000000000000000000000000000000000000000000000000000000000000000000000000000000000000000000000000000000000000000000000000000000000000000000000000000000000000000000000000000000000000000000000000000000000
310
00000000000000000000000000000000000000000000000000000000000000000000000000000000000000000000000000000000000000000000000000000000000000000000000000000000000000000000000000000000000000000000000000000000000000000000000000000000000000000000000000000000000000
310
00000000000000000000000000000000000000000000000000000000000000000000000000000000000000000000000000000000000000000000000000000000000000000000000000000000000000000000000000000000000000000000000000000000000000000000000000000000000000000000000000000000000000
310
00000000000000000000000000000000000000000000000000000000000000000000000000000000000000000000000000000000000000000000000000000000000000000000000000000000000000000000000000000000000000000000000000000000000000000000000000000000000000000000000000000000000000
310
00000000000000000000000000000000000000000000000000000000000000000000000000000000000000000000000000000000000000000000000000000000000000000000000000000000000000000000000000000000000000000000000000000000000000000000000000000000000000000000000000000000000000
310
00000000000000000000000000000000000000000000000000000000000000000000000000000000000000000000000000000000000000000000000000000000000000000000000000000000000000000000000000000000000000000000000000000000000000000000000000000000000000000000000000000000000000
310
00000000000000000000000000000000000000000000000000000000000000000000000000000000000000000000000000000000000000000000000000000000000000000000000000000000000000000000000000000000000000000000000000000000000000000000000000000000000000000000000000000000000000
310
00000000000000000000000000000000000000000000000000000000000000000000000000000000000000000000000000000000000000000000000000000000000000000000000000000000000000000000000000000000000000000000000000000000000000000000000000000000000000000000000000000000000000
310
00000000000000000000000000000000000000000000000000000000000000000000000000000000000000000000000000000000000000000000000000000000000000000000000000000000000000000000000000000000000000000000000000000000000000000000000000000000000000000000000000000000000000
310
00000000000000000000000000000000000000000000000000000000000000000000000000000000000000000000000000000000000000000000000000000000000000000000000000000000000000000000000000000000000000000000000000000000000000000000000000000000000000000000000000000000000000
310
00000000000000000000000000000000000000000000000000000000000000000000000000000000000000000000000000000000000000000000000000000000000000000000000000000000000000000000000000000000000000000000000000000000000000000000000000000000000000000000000000000000000000
310
00000000000000000000000000000000000000000000000000000000000000000000000000000000000000000000000000000000000000000000000000000000000000000000000000000000000000000000000000000000000000000000000000000000000000000000000000000000000000000000000000000000000000
310
00000000000000000000000000000000000000000000000000000000000000000000000000000000000000000000000000000000000000000000000000000000000000000000000000000000000000000000000000000000000000000000000000000000000000000000000000000000000000000000000000000000000000
310
00000000000000000000000000000000000000000000000000000000000000000000000000000000000000000000000000000000000000000000000000000000000000000000000000000000000000000000000000000000000000000000000000000000000000000000000000000000000000000000000000000000000000
310
00000000000000000000000000000000000000000000000000000000000000000000000000000000000000000000000000000000000000000000000000000000000000000000000000000000000000000000000000000000000000000000000000000000000000000000000000000000000000000000000000000000000000
310
00000000000000000000000000000000000000000000000000000000000000000000000000000000000000000000000000000000000000000000000000000000000000000000000000000000000000000000000000000000000000000000000000000000000000000000000000000000000000000000000000000000000000
310
00000000000000000000000000000000000000000000000000000000000000000000000000000000000000000000000000000000000000000000000000000000000000000000000000000000000000000000000000000000000000000000000000000000000000000000000000000000000000000000000000000000000000
310
00000000000000000000000000000000000000000000000000000000000000000000000000000000000000000000000000000000000000000000000000000000000000000000000000000000000000000000000000000000000000000000000000000000000000000000000000000000000000000000000000000000000000
310
00000000000000000000000000000000000000000000000000000000000000000000000000000000000000000000000000000000000000000000000000000000000000000000000000000000000000000000000000000000000000000000000000000000000000000000000000000000000000000000000000000000000000
310
00000000000000000000000000000000000000000000000000000000000000000000000000000000000000000000000000000000000000000000000000000000000000000000000000000000000000000000000000000000000000000000000000000000000000000000000000000000000000000000000000000000000000
310
00000000000000000000000000000000000000000000000000000000000000000000000000000000000000000000000000000000000000000000000000000000000000000000000000000000000000000000000000000000000000000000000000000000000000000000000000000000000000000000000000000000000000
310
00000000000000000000000000000000000000000000000000000000000000000000000000000000000000000000000000000000000000000000000000000000000000000000000000000000000000000000000000000000000000000000000000000000000000000000000000000000000000000000000000000000000000
310
00000000000000000000000000000000000000000000000000000000000000000000000000000000000000000000000000000000000000000000000000000000000000000000000000000000000000000000000000000000000000000000000000000000000000000000000000000000000000000000000000000000000000
310
00000000000000000000000000000000000000000000000000000000000000000000000000000000000000000000000000000000000000000000000000000000000000000000000000000000000000000000000000000000000000000000000000000000000000000000000000000000000000000000000000000000000000
310
00000000000000000000000000000000000000000000000000000000000000000000000000000000000000000000000000000000000000000000000000000000000000000000000000000000000000000000000000000000000000000000000000000000000000000000000000000000000000000000000000000000000000
310
00000000000000000000000000000000000000000000000000000000000000000000000000000000000000000000000000000000000000000000000000000000000000000000000000000000000000000000000000000000000000000000000000000000000000000000000000000000000000000000000000000000000000
310
00000000000000000000000000000000000000000000000000000000000000000000000000000000000000000000000000000000000000000000000000000000000000000000000000000000000000000000000000000000000000000000000000000000000000000000000000000000000000000000000000000000000000
310
00000000000000000000000000000000000000000000000000000000000000000000000000000000000000000000000000000000000000000000000000000000000000000000000000000000000000000000000000000000000000000000000000000000000000000000000000000000000000000000000000000000000000
310
00000000000000000000000000000000000000000000000000000000000000000000000000000000000000000000000000000000000000000000000000000000000000000000000000000000000000000000000000000000000000000000000000000000000000000000000000000000000000000000000000000000000000
310
00000000000000000000000000000000000000000000000000000000000000000000000000000000000000000000000000000000000000000000000000000000000000000000000000000000000000000000000000000000000000000000000000000000000000000000000000000000000000000000000000000000000000
310
00000000000000000000000000000000000000000000000000000000000000000000000000000000000000000000000000000000000000000000000000000000000000000000000000000000000000000000000000000000000000000000000000000000000000000000000000000000000000000000000000000000000000
310
00000000000000000000000000000000000000000000000000000000000000000000000000000000000000000000000000000000000000000000000000000000000000000000000000000000000000000000000000000000000000000000000000000000000000000000000000000000000000000000000000000000000000
310
00000000000000000000000000000000000000000000000000000000000000000000000000000000000000000000000000000000000000000000000000000000000000000000000000000000000000000000000000000000000000000000000000000000000000000000000000000000000000000000000000000000000000
310
00000000000000000000000000000000000000000000000000000000000000000000000000000000000000000000000000000000000000000000000000000000000000000000000000000000000000000000000000000000000000000000000000000000000000000000000000000000000000000000000000000000000000
310
00000000000000000000000000000000000000000000000000000000000000000000000000000000000000000000000000000000000000000000000000000000000000000000000000000000000000000000000000000000000000000000000000000000000000000000000000000000000000000000000000000000000000
310
00000000000000000000000000000000000000000000000000000000000000000000000000000000000000000000000000000000000000000000000000000000000000000000000000000000000000000000000000000000000000000000000000000000000000000000000000000000000000000000000000000000000000
310
00000000000000000000000000000000000000000000000000000000000000000000000000000000000000000000000000000000000000000000000000000000000000000000000000000000000000000000000000000000000000000000000000000000000000000000000000000000000000000000000000000000000000
310
00000000000000000000000000000000000000000000000000000000000000000000000000000000000000000000000000000000000000000000000000000000000000000000000000000000000000000000000000000000000000000000000000000000000000000000000000000000000000000000000000000000000000
310
00000000000000000000000000000000000000000000000000000000000000000000000000000000000000000000000000000000000000000000000000000000000000000000000000000000000000000000000000000000000000000000000000000000000000000000000000000000000000000000000000000000000000
310
00000000000000000000000000000000000000000000000000000000000000000000000000000000000000000000000000000000000000000000000000000000000000000000000000000000000000000000000000000000000000000000000000000000000000000000000000000000000000000000000000000000000000
310
00000000000000000000000000000000000000000000000000000000000000000000000000000000000000000000000000000000000000000000000000000000000000000000000000000000000000000000000000000000000000000000000000000000000000000000000000000000000000000000000000000000000000
310
00000000000000000000000000000000000000000000000000000000000000000000000000000000000000000000000000000000000000000000000000000000000000000000000000000000000000000000000000000000000000000000000000000000000000000000000000000000000000000000000000000000000000
310
00000000000000000000000000000000000000000000000000000000000000000000000000000000000000000000000000000000000000000000000000000000000000000000000000000000000000000000000000000000000000000000000000000000000000000000000000000000000000000000000000000000000000
310
00000000000000000000000000000000000000000000000000000000000000000000000000000000000000000000000000000000000000000000000000000000000000000000000000000000000000000000000000000000000000000000000000000000000000000000000000000000000000000000000000000000000000
310
00000000000000000000000000000000000000000000000000000000000000000000000000000000000000000000000000000000000000000000000000000000000000000000000000000000000000000000000000000000000000000000000000000000000000000000000000000000000000000000000000000000000000
310
00000000000000000000000000000000000000000000000000000000000000000000000000000000000000000000000000000000000000000000000000000000000000000000000000000000000000000000000000000000000000000000000000000000000000000000000000000000000000000000000000000000000000
310
00000000000000000000000000000000000000000000000000000000000000000000000000000000000000000000000000000000000000000000000000000000000000000000000000000000000000000000000000000000000000000000000000000000000000000000000000000000000000000000000000000000000000
310
00000000000000000000000000000000000000000000000000000000000000000000000000000000000000000000000000000000000000000000000000000000000000000000000000000000000000000000000000000000000000000000000000000000000000000000000000000000000000000000000000000000000000
310
00000000000000000000000000000000000000000000000000000000000000000000000000000000000000000000000000000000000000000000000000000000000000000000000000002A2A000000000000000000000000000000000000000000000000000000000000000000000000000000000000000000000000000000
310
00000000000000000000000000000000000000000000000000000000000000000000000000000000000000000000000000000000000000000000000000000000000000000000000000000000000000000000000000000000000000000000000000000000000000000000000000000000000000000000000000000000000000
310
0000000000000000000000000000000000000000000000000000000000000000000000000000000000002A2A00000000000000000000000000000000000000000000000000000000000000002A2A00000000000000000000000000000000000000000000000000000000000000002A2A2A0000000000000000000000000000
310
00000000000000000000000000000000000000000000000000000000000000000000000000000000000000000000000000000000000000000000000000000000000000000000000000000000000000000000000000000000000000000000000000000000000000000000000000000000000000000000000000000000000000
310
00000000000000000000000000000000000000000000000000000000000000000000000000000000000000002A2A00000000000000000000000000000000000000000000000000000000000000002A2A002A2A2A2A2A00000000000000000000000000000000000000000000000000002A2A2A2A2A2A000000000000000000
310
00000000000000000000000000000000000000000000000000000000000000000000000000000000000000000000000000000000000000000000000000000000000000000000000000000000000000000000000000000000000000000000000000000000000000000000000000000000000000000000000000000000000000
310
000000000000000000000000000000000000000000000000000000000000000000000000000000000000000000002A2A002A2A2A2A2A00000000000000000000000000000000000000000000000000002A2A002A2A2A2A2A2A2A2A2A2A2A2A000000000000000000000000000000000000002A2A2A2A2A2A00000000000000
310
00000000000000000000000000000000000000000000000000000000000000000000000000000000000000000000000000000000000000000000000000000000000000000000000000000000000000000000000000000000000000000000000000000000000000000000000000000000000000000000000000000000000000
310
0000000000000000000000000000000000000000000000000000000000000000000000000000000000000000000000002A2A002A2A2A2A2A2A2A2A2A2A2A2A000000000000000000000000000000000000000000002A2A2A2A2A2A2A2A2A2A2A2A000000000000000000000000000000000000000000002A2A2A2A002A2A2A
310
2A002A00000000000000000000000000000000000000000000000000000000000000000000000000000000000000000000000000000000000000000000000000000000000000000000000000000000000000000000000000000000000000000000000000000000000000000000000000000000000000000000000000000000
310
00000000000000000000000000000000000000000000000000000000000000000000000000000000000000000000000000000000002A2A2A2A2A2A2A2A2A2A2A2A000000000000000000000000000000000000002A2A2A2A2A2A2A2A2A2A2A2A2A2A00000000000000000000000000000000000000002A2A2A2A2A2A2A2A2A
310
2A2A2A2A2A0000000000000000000000000000000000000000000000000000000000000000000000000000000000000000000000000000000000000000000000000000000000000000000000000000000000000000000000000000000000000000000000000000000000000000000000000000000000000000000000000000
310
000000000000000000000000000000000000000000000000000000000000000000000000000000000000000000000000000000002A2A2A2A2A2A2A2A2A2A2A2A2A2A00000000000000000000000000000000000000002A2A2A2A2A2A2A2A2A2A2A2A2A2A00000000000000000000000000000000000000002A2A2A2A2A2A2A
310
2A2A2A2A2A2A2A000000000000000000000000000000000000000000000000000000000000000000000000000000000000000000000000000000000000000000000000000000000000000000000000000000000000000000000000000000000000000000000000000000000000000000000000000000000000000000000000
310
0000000000000000000000000000000000000000000000000000000000000000000000000000000000000000000000000000000000002A2A2A2A2A2A2A2A2A2A2A2A2A2A0000000000000000000000000000000000000000000000000000000000000000000000000000000000000000000000000000000000000000000000
310
00000000000000000000000000000000000000000000000000000000000000000000000000000000000000000000000000000000000000000000000000000000000000000000000000000000000000000000000000000000000000000000000000000000000000000000000000000000000000000000000000000000000000
310
00000000000000000000000000000000000000000000000000000000000000000000000000000000000000000000000000000000000000000000000000000000000000000000000000000000000000000000000000000000000000000000000000000000000000000000000000002A00000000000000000000000000000000
310
00002A0000000000000000000000000000000000002A000000000000000000000000000000000000000000000000000000000000000000000000000000000000000000000000000000000000000000000000000000000000000000000000000000000000000000000000000000000000000000000000000000000000000000
310
00000000000000000000000000000000000000000000000000000000000000000000000000000000000000000000000000000000000000000000000000002A00000000000000000000000000002A0000000000000000000000000000000000002A0000000000000000000000000000002A0000000000000000000000000028
310
282800002A0000282828000000000000000000000000282828000000000000000000000000000000000000000000000000000000000000000000000000000000000000000000000000000000000000000000000000000000000000000000000000000000000000000000000000000000000000000000000000000000000000
310
000000000000000000000000000000000000000000000000000000000000000000000000000000000000000000000000000000000000000000000000000028002A28000000000000000000000000002A0000000000000000000000000000282828282828282828280000000000000000002828280000000000000000000000
310
00282828282828282828282800000000000000000000282828282828280000000000000000000000000000000000000000000000000000000000000000000000000000000000000000000000000000000000000000000000000000000000000000000000000000000000000000000000000000000000000000000000000000
310
000000000000000000000000000000000000000000000000000000000000000000000000000000000000000000000000000000000000000000000000000028282828280028282800000000000000000000280000000000000000000000000000282800002A0000282828000000000000000028282828280000000000000000
310
00000028002800002A00002800280000000000000000000028280028282828000000000000000000000000000000000000000000000000000000000000000000000000000000000000000000000000000000000000000000000000000000000000000000000000000000000000000000000000000000000000000000000000
310
00000000000000000000000000000000000000000000000000000000000000000000000000000000000000000000000000000000000000000000000000000000282828282828282828000000000000000000282A2828000000000000000000000000282800002A0000280028000000000000000028282A0028280000000000
310
000000000028002800002A0000280028000000000000000000280028282A00282828000000000000000000000000000000000000000000000000000000000000000000000000000000000000000000000000000000000000000000000000000000000000000000000000000000000000000000000000000000000000000000
310
000000000000000000000000000000000000000000000000000000000000000000000000000000000000000000000000000000000000000000000000000000000000282800002A002800280000000000000000282828282828000000000000000000002A282828282828282828280000000000002A282A2A2A2A2A28000000
310
0000000000002A282828282828282828282800000000000000002A2828282A2A2A2828282A000000000000000000000000000000000000000000000000000000000000000000000000000000000000000000000000000000000000000000000000000000000000000000000000000000000000000000000000000000000000
310
000000000000000000000000000000000000000000000000000000000000000000000000000000000000000000000000000000000000000000000000000000000000002A2828282828282828282A0000000000002A28282A2828282A0000000000000000000028282828282828280028000000000000002828282A00282800
310
0000000000000000002800282828282828280028000000000000000000280028282A002828280000000000000000000000000000000000000000000000000000000000000000000000000000000000000000000000000000000000000000000000000000000000000000000000000000000000000000000000000000000000
310
00000000000000000000000000000000000000000000000000000000000000000000000000000000000000000000000000000000000000000000000000000000000000000000282828002A2828002800000000000000002828280000280000000000000000000000282828002A002828002800000000000000282800282828
310
280000000000000000000028002828002A0028280028000000000000000000282828002828282800000000000000000000000000000000000000000000000000000000000000000000000000000000000000000000000000000000000000000000000000000000000000000000000000000000000000000000000000000000
310
000000000000000000000000000000000000000000000000000000000000000000000000000000000000000000000000000000000000000000000000000000000000000000000000282828002A2828282800000000000000002828282828280000000000000000000000282828002A00282828280000000000000028282828
310
2828280000000000000000000028282828002A002828282800000000000000000028282828282828280000000000000000000000000000000000000000000000000000000000000000000000000000000000000000000000000000000000000000000000000000000000000000000000000000000000000000000000000000
310
0000000000000000000000000000000000000000000000000000000000000000000000000000000000000000000000000000000000000000000000000000000000000000000000000000282828282A2828280000000000000000002828282828280000000000000000000000282828002A0028282800000000000000002828
310
00280028280000000000000000000028282828002A00282828280000000000000000002800002828280000280000000000000000000000000000000000000000000000000000000000000000000000000000000000000000000000000000000000000000000000000000000000000000000000000000000000000000000000
310
00000000000000000000000000000000000000000000000000000000000000000000000000000000000000000000000000000000000000000000000000000000000000000000000000000000282828002A28282800000000000000002828282828282828000000000000000000002828282828282828280000000000000028
310
282828282828282800000000000000000000282828002A0028282800000000000000000000280028002800280028000000000000000000000000000000000000000000000000000000000000000000000000000000000000000000000000000000000000000000000000000000000000000000000000000000000000000000
310
00000000000000000000000000000000000000000000000000000000000000000000000000000000000000000000000000000000000000000000000000000000000000000000000000000000000000282828282828280000000000000000002828282828280000000000000000000000002800002A00002828000000000000
310
00002800002A00002828000000000000000000282828282828282828282800000000000000000028282828282828282800000000000000000000000000000000000000000000000000000000000000000000000000000000000000000000000000000000000000000000000000000000000000000000000000000000000000
310
000000000000000000000000000000000000000000000000000000000000000000000000000000000000000000000000000000000000000000000000000000000000000000000000000000000000000000282828282828280000000000000000002828282828280000000000000000000000002828282A2828282800000000
310
00000000282828282828282800000000000000000000280000002A0000282800000000000000000000280028002A002800280000000000000000000000000000000000000000000000000000000000000000000000000000000000000000000000000000000000000000000000000000000000000000000000000000000000
310
0000000000000000000000000000000000000000000000000000000000000000000000000000000000000000000000000000000000000000000000000000000000000000000000000000000000000000000000002828282828000000000000000000002828282828000000000000000000000000000028282A282828000000
310
00000000000000282828282800000000000000000000000028282828282828282800000000000000000000282828282828282828000000000000000000000000000000000000000000000000000000000000000000000000000000000000000000000000000000000000000000000000000000000000000000000000000000
310
00000000000000000000000000000000000000000000000000000000000000000000000000000000000000000000000000000000000000000000000000000000000000000000000000000000000000000000000000002828282828000000000000000000000028282828000000000000000000000000002828282A28282800
310
0000000000000000282828282828280000000000000000000000002800282A282800000000000000000000000000002800280028000000000000000000000000000000000000000000000000000000000000000000000000000000000000000000000000000000000000000000000000000000000000000000000000000000
310
00000000000000000000000000000000000000000000000000000000000000000000000000000000000000000000000000000000000000000000000000000000000000000000000000000000000000000000000000000000282828282800000000000000000000002828282800000000000000000000000000002828282828
310
00000000000000000000002828282828000000000000000000000000002828282828280000000000000000000000000000282828282800000000000000000000000000000000000000000000000000000000000000000000000000000000000000000000000000000000000000000000000000000000000000000000000000
310
00000000000000000000000000000000000000000000000000000000000000000000000000000000000000000000000000000000000000000000000000000000000000000000000000000000000000000000000000000000000028282828000000000000000000000000282828280000000000000000000000000000282828
310
28280000000000000000000000282828282800000000000000000000000000282828282828280000000000000000000000002828282828282800000000000000000000000000000000000000000000000000000000000000000000000000000000000000000000000000000000000000000000000000000000000000000000
310
000000000000000000000000000000000000000000000000000000000000000000000000000000000000000000000000000000000000000000000000000000000000000000000000000000000000000000000000000000000000280028002A28282800000000000000002828282A0028002800000000000000000000000000
310
282A2800000000000000000000000000282A2800000000000000000000000000000028282A282800000000000000000000000000002800280028000000000000000000000000000000000000000000000000000000000000000000000000000000000000000000000000000000000000000000000000000000000000000000
310
00000000000000000000000000000000000000000000000000000000000000000000000000000000000000000000000000000000000000000000000000000000000000000000000000000000000000000000000000000000000000282828282828282828282800000000282828282828282828282828000000000000000000
310
2828282A2828002800000000000000002828282A2828280000000000000000000000000028282828280000000000000000000000000000282828282800000000000000000000000000000000000000000000000000000000000000000000000000000000000000000000000000000000000000000000000000000000000000
310
00000000000000000000000000000000000000000000000000000000000000000000000000000000000000000000000000000000000000000000000000000000000000000000000000000000000000000000000000000000000000000028282828282828282828000000000000282828282828282828280000000000000000
310
28282828282A2828282828000000000028282828282A282828282800000000000000000000002828282828000000000000000000000000000028282828280000000000000000000000000000000000000000000000000000000000000000000000000000000000000000000000000000000000000000000000000000000000
310
00000000000000000000000000000000000000000000000000000000000000000000000000000000000000000000000000000000000000000000000000000000000000000000000000000000000000000000000000000000000000000000000000280000280028000000000000000000002800280000280000000000000000
310
000028282828282A2828282828000000000028282828282A28282828280000000000000028282828282828282828282828000000000000282828282828282828282828280000000000000000000000000000000000000000000000000000000000000000000000000000000000000000000000000000000000000000000000
310
00000000000000000000000000000000000000000000000000000000000000000000000000000000000000000000000000000000000000000000000000000000000000000000000000000000000000000000000000000000000000000000000000000000000000000000000000000000000000000000000000000000000000
310
0000000028282828002A2800282828000000000028282828002A2800282828000000000000002828282828282828282828282800000000000028282828282828282828282828000000000000000000000000000000000000000000000000000000000000000000000000000000000000000000000000000000000000000000
310
00000000000000000000000000000000000000000000000000000000000000000000000000000000000000000000000000000000000000000000000000000000000000000000000000000000000000000000000000000000000000000000000000000000000000002A00000000000000000000000000000000000000000000
310
00000000000000000000002A0000000000000000000000000000002A000000000000000000000000002828282828282828282828000000000000000028282828282A28282828280000000000000000000000000000000000000000000000000000000000000000000000000000000000000000000000000000000000000000
310
00000000000000000000000000000000000000000000000000000000000000000000000000000000000000000000000000000000000000000000000000000000000000000000000000000000000000000000000000000000000000000000000000000000000000002828282800000000000000000000000000000000000000
310
00000000000000000000000000000000000000000000000000000000000000000000000000000000000000282828002828000028282800000000000000002828280028282800282828000000000000000000000000000000000000000000000000000000000000000000000000000000000000000000000000000000000000
310
00000000000000000000000000000000000000000000000000000000000000000000000000000000000000000000000000000000000000000000000000000000000000000000000000000000000000000000000000000000000000000000000000000000000000000028282828282800000000000000000000000000000000
310
00000000000000000000000000000000000000000000000000000000000000000000000000000000000000000000000000002A0000000000000000000000000000000000002A000000000000000000000000000000000000000000000000000000000000000000000000000000000000000000000000000000000000000000
310
00000000000000000000000000000000000000000000000000000000000000000000000000000000000000000000000000000000000000000000000000000000000000000000000000000000000000000000000000000000000000000000000000000000000000000000002800282800282800000000000000000000000000
310
00000000000000000000000000000000002A00000000000000000000000000000000000000000000000000000000000000000000000000000000000000000000000000000000000000000000000000000000000000000000000000000000000000000000000000000000000000000000000000000000000000000000000000
310
00000000000000000000000000000000000000000000000000000000000000000000000000000000000000000000000000000000000000000000000000000000000000000000000000000000000000000000000000000000000000000000000000000000000000000000000028282828282828282800000000000000000000
310
00000000000000000000000000000000000028282828000000000000000000000000000000000000000000000000000000000000000000000000000000000000000000000000000000000000000000000000000000000000000000000000000000000000000000000000000000000000000000000000000000000000000000
310
00000000000000000000000000000000000000000000000000000000000000000000000000000000000000000000000000000000000000000000000000000000000000000000000000000000000000000000000000000000000000000000000000000000000000000000000000282828282828282828282800000000000000
310
00000000000000000000000000000000000028282828282828000000000000000000000000000000000000000000000000000000000000000000000000000000000000000000000000000000000000000000000000000000000000000000000000000000000000000000000000000000000000000000000000000000000000
310
00000000000000000000000000000000000000000000000000000000000000000000000000000000000000000000000000000000000000000000000000000000000000000000000000000000000000000000000000000000000000000000000000000000000000000000000000002A28282828282828282828282A00000000
310
000000000000000000000000000000000000002800280028282828282800000000000000000000000000000000000000000000000000000028002A2800000000000000000000000000000000000000000000000000000000000000000000000000000000000000000000000000000000000000000000000000000000000000
310
00000000000000000000000000000000000000000000000000000000000000000000000000000000000000000000000000000000000000000000000000000000000000000000000000000000000000000000000000000000000000000000000000000000000000000000000000000000002828282828282828282828000000
310
00000000000000000000000000000000000000000028282828282828282828000000000000000000000000000000000000000000000000002828282828282828000000000000000000000000000000000000000000000000000000000000000000000000000000000000000000000000000000000000000000000000000000
310
00000000000000000000000000000000000000000000000000000000000000000000000000000000000000000000000000000000000000000000000000000000000000000000000000000000000000000000000000000000000000000000000000000000000000000000000000000000000000282828282828282828282800
310
00000000000000000000000000000000000000000000282828282828282828282800000000000000000000000000000000000000000000000028282800282828282828280000000000000000000000000000000000000000000000000000000000000000000000000000000000000000000000000000000000000000000000
310
00000000000000000000000000000000000000000000000000000000000000000000000000000000000000000000000000000000000000000000000000000000000000000000000000000000000000000000000000000000000000000000000000000000000000000000000000000000000000000000282828282828282828
310
00000000000000000000000000000000000000000000002A28282828282A28282828280000000000000000000000000000000000000000000000282828282828282828282828000000000000000000000000000000000000000000000000000000000000000000000000000000000000000000000000000000000000000000
310
00000000000000000000000000000000000000000000000000000000000000000000000000000000000000000000000000000000000000000000000000000000000000000000000000000000000000000000000000000000000000000000000000000000000000000000000000000000000000000000000000280028280028
310
28000000000000000000000000000000000000000000000000002828282828282828282828000000000000000000000000000000000000000000000028282828282828282828282828000000000000000000000000000000000000000000000000000000000000000000000000000000000000000000000000000000000000
310
00000000000000000000000000000000000000000000000000000000000000000000000000000000000000000000000000000000000000000000000000000000000000000000000000000000000000000000000000000000000000000000000000000000000000000000000000000000000000000000000000000028002828
310
28280000000000000000000000000000000000000000000000000000282828282828282828282800000000000000000000000000000000000000000000282828282828282828282828282800000000000000000000000000000000000000000000000000000000000000000000000000000000000000000000000000000000
310
00000000000000000000000000000000000000000000000000000000000000000000000000000000000000000000000000000000000000000000000000000000000000000000000000000000000000000000000000000000000000000000000000000000000000000000000000000000000000000000000000000000000028
310
2828280000000000000000000000000000000000000000000000000000000028282828282828282828000000000000000000000000000000000000000000002A2828282828282A2828282828280000000000000000000000000000000000000000000000000000000000000000000000000000000000000000000000000000
310
00000000000000000000000000000000000000000000000000000000000000000000000000000000000000000000000000000000000000000000000000000000000000000000000000000000000000000000000000000000000000000000000000000000000000000000000000000000000000000000000000000000000000
310
00000000000000000000000000000000000000000000000000000000000000000000282828282800280000000000000000000000000000000000000000000000000028282828282828282828282828000000000000000000000000000000000000000000000000000000000000000000000000000000000000000000000000
310
00000000000000000000000000000000000000000000000000000000000000000000000000000000000000000000000000000000000000000000000000000000000000000000000000000000000000000000000000000000000000000000000000000000000000000000000000000000000000000000000000000000000000
310
00000000000000000000000000000000000000000000000000000000000000000000000000002828282800000000000000000000000000000000000000000000000000282828002828282A28282800282800000000000000000000000000000000000000000000000000000000000000000000000000000000000000000000
310
00000000000000000000000000000000000000000000000000000000000000000000000000000000000000000000000000000000000000000000000000000000000000000000000000000000000000000000000000000000000000000000000000000000000000000000000000000000000000000000000000000000000000
310
00000000000000000000000000000000000000000000000000000000000000000000000000000000002A00000000000000000000000000000000000000000000000000000000282828282828282828282828280000000000000000000000000000000000000000000000000000000000000000000000000000000000000000
310
00000000000000000000000000000000000000000000000000000000000000000000000000000000000000000000000000000000000000000000000000000000000000000000000000000000000000000000000000000000000000000000000000000000000000000000000000000000000000000000000000000000000000
310
00000000000000000000000000000000000000000000000000000000000000000000000000000000000000000000000000000000000000000000000000000000000000000000000028282828002828280028282800000000000000000000000000000000000000000000000000000000000000000000000000000000000000
310
00000000000000000000000000000000000000000000000000000000000000000000000000000000000000000000000000000000000000000000000000000000000000000000000000000000000000000000000000000000000000000000000000000000000000000000000000000000000000000000000000000000000000
310
00000000000000000000000000000000000000000000000000000000000000000000000000000000000000000000000000000000000000000000000000000000000000000000000000000000002800282828282800000000000000000000000000000000000000000000000000000000000000000000000000000000000000
310
00000000000000000000000000000000000000000000000000000000000000000000000000000000000000000000000000000000000000000000000000000000000000000000000000000000000000000000000000000000000000000000000000000000000000000000000000000000000000000000000000000000000000
310
00000000000000000000000000000000000000000000000000000000000000000000000000000000000000000000000000000000000000000000000000000000000000000000000000000000000028002828282800280000000000000000000000000000000000000000000000000000000000000000000000000000000000
310
00000000000000000000000000000000000000000000000000000000000000000000000000000000000000000000000000000000000000000000000000000000000000000000000000000000000000000000000000000000000000000000000000000000000000000000000000000000000000000000000000000000000000
310
0000000000000000000000000000000000000000000000000000000000000000000000000000000000000000000000000000000000000000000000000000000000000000000000000000000000000000002828002A282800000000000000000000000000000000000000000000000000000000000000000000000000000000
310
00000000000000000000000000000000000000000000000000000000000000000000000000000000000000000000000000000000000000000000000000000000000000000000000000000000000000000000000000000000000000000000000000000000000000000000000000000000000000000000000000000000000000
310
00000000000000000000000000000000000000000000000000000000000000000000000000000000000000000000000000000000000000000000000000000000000000000000000000000000000000000000000000000000000000000000000000000000000000000000000000000000000000000000000000000000000000
310
00000000000000000000000000000000000000000000000000000000000000000000000000000000000000000000000000000000000000000000000000000000000000000000000000000000000000000000000000000000000000000000000000000000000000000000000000000000000000000000000000000000000000
310
00000000000000000000000000000000000000000000000000000000000000000000000000000000000000000000000000000000000000000000000000000000000000000000000000000000000000000000000000000000000000000000000000000000000000000000000000000000000000000000000000000000000000
310
00000000000000000000000000000000000000000000000000000000000000000000000000000000000000000000000000000000000000000000000000000000000000000000000000000000000000000000000000000000000000000000000000000000000000000000000000000000000000000000000000000000000000
310
00000000000000000000000000000000000000000000000000000000000000000000000000000000000000000000000000000000000000000000000000000000000000000000000000000000000000000000000000000000000000000000000000000000000000000000000000000000000000000000000000000000000000
310
00000000000000000000000000000000000000000000000000000000000000000000000000000000000000000000000000000000000000000000000000000000000000000000000000000000000000000000000000000000000000000000000000000000000000000000000000000000000000000000000000000000000000
310
00000000000000000000000000000000000000000000000000000000000000000000000000000000000000000000000000000000000000000000000000000000000000000000000000000000000000000000000000000000000000000000000000000000000000000000000000000000000000000000000000000000000000
310
00000000000000000000000000000000000000000000000000000000000000000000000000000000000000000000000000000000000000000000000000000000000000000000000000000000000000000000000000000000000000000000000000000000000000000000000000000000000000000000000000000000000000
310
00000000000000000000000000000000000000000000000000000000000000000000000000000000000000000000000000000000000000000000000000000000000000000000000000000000000000000000000000000000000000000000000000000000000000000000000000000000000000000000000000000000000000
310
00000000000000000000000000000000000000000000000000000000000000000000000000000000000000000000000000000000000000000000000000000000000000000000000000000000000000000000000000000000000000000000000000000000000000000000000000000000000000000000000000000000000000
310
00000000000000000000000000000000000000000000000000000000000000000000000000000000000000000000000000000000000000000000000000000000000000000000000000000000000000000000000000000000000000000000000000000000000000000000000000000000000000000000000000000000000000
310
00000000000000000000000000000000000000000000000000000000000000000000000000000000000000000000000000000000000000000000000000000000000000000000000000000000000000000000000000000000000000000000000000000000000000000000000000000000000000000000000000000000000000
310
00000000000000000000000000000000000000000000000000000000000000000000000000000000000000000000000000000000000000000000000000000000000000000000000000000000000000000000000000000000000000000000000000000000000000000000000000000000000000000000000000000000000000
310
00000000000000000000000000000000000000000000000000000000000000000000000000000000000000000000000000000000000000000000000000000000000000000000000000000000000000000000000000000000000000000000000000000000000000000000000000000000000000000000000000000000000000
310
00000000000000000000000000000000000000000000000000000000000000000000000000000000000000000000000000000000000000000000000000000000000000000000000000000000000000000000000000000000000000000000000000000000000000000000000000000000000000000000000000000000000000
310
00000000000000000000000000000000000000000000000000000000000000000000000000000000000000000000000000000000000000000000000000000000000000000000000000000000000000000000000000000000000000000000000000000000000000000000000000000000000000000000000000000000000000
310
00000000000000000000000000000000000000000000000000000000000000000000000000000000000000000000000000000000000000000000000000000000000000000000000000000000000000000000000000000000000000000000000000000000000000000000000000000000000000000000000000000000000000
310
00000000000000000000000000000000000000000000000000000000000000000000000000000000000000000000000000000000000000000000000000000000000000000000000000000000000000000000000000000000000000000000000000000000000000000000000000000000000000000000000000000000000000
310
00000000000000000000000000000000000000000000000000000000000000000000000000000000000000000000000000000000000000000000000000000000000000000000000000000000000000000000000000000000000000000000000000000000000000000000000000000000000000000000000000000000000000
310
00000000000000000000000000000000000000000000000000000000000000000000000000000000000000000000000000000000000000000000000000000000000000000000000000000000000000000000000000000000000000000000000000000000000000000000000000000000000000000000000000000000000000
310
00000000000000000000000000000000000000000000000000000000000000000000000000000000000000000000000000000000000000000000000000000000000000000000000000000000000000000000000000000000000000000000000000000000000000000000000000000000000000000000000000000000000000
310
00000000000000000000000000000000000000000000000000000000000000000000000000000000000000000000000000000000000000000000000000000000000000000000000000000000000000000000000000000000000000000000000000000000000000000000000000000000000000000000000000000000000000
310
00000000000000000000000000000000000000000000000000000000000000000000000000000000000000000000000000000000000000000000000000000000000000000000000000000000000000000000000000000000000000000000000000000000000000000000000000000000000000000000000000000000000000
310
00000000000000000000000000000000000000000000000000000000000000000000000000000000000000000000000000000000000000000000000000000000000000000000000000000000000000000000000000000000000000000000000000000000000000000000000000000000000000000000000000000000000000
310
00000000000000000000000000000000000000000000000000000000000000000000000000000000000000000000000000000000000000000000000000000000000000000000000000000000000000000000000000000000000000000000000000000000000000000000000000000000000000000000000000000000000000
310
00000000000000000000000000000000000000000000000000000000000000000000000000000000000000000000000000000000000000000000000000000000000000000000000000000000000000000000000000000000000000000000000000000000000000000000000000000000000000000000000000000000000000
310
00000000000000000000000000000000000000000000000000000000000000000000000000000000000000000000000000000000000000000000000000000000000000000000000000000000000000000000000000000000000000000000000000000000000000000000000000000000000000000000000000000000000000
310
00000000000000000000000000000000000000000000000000000000000000000000000000000000000000000000000000000000000000000000000000000000000000000000000000000000000000000000000000000000000000000000000000000000000000000000000000000000000000000000000000000000000000
310
00000000000000000000000000000000000000000000000000000000000000000000000000000000000000000000000000000000000000000000000000000000000000000000000000000000000000000000000000000000000000000000000000000000000000000000000000000000000000000000000000000000000000
310
00000000000000000000000000000000000000000000000000000000000000000000000000000000000000000000000000000000000000000000000000000000000000000000000000000000000000000000000000000000000000000000000000000000000000000000000000000000000000000000000000000000000000
310
00000000000000000000000000000000000000000000000000000000000000000000000000000000000000000000000000000000000000000000000000000000000000000000000000000000000000000000000000000000000000000000000000000000000000000000000000000000000000000000000000000000000000
310
00000000000000000000000000000000000000000000000000000000000000000000000000000000000000000000000000000000000000000000000000000000000000000000000000000000000000000000000000000000000000000000000000000000000000000000000000000000000000000000000000000000000000
310
00000000000000000000000000000000000000000000000000000000000000000000000000000000000000000000000000000000000000000000000000000000000000000000000000000000000000000000000000000000000000000000000000000000000000000000000000000000000000000000000000000000000000
310
00000000000000000000000000000000000000000000000000000000000000000000000000000000000000000000000000000000000000000000000000000000000000000000000000000000000000000000000000000000000000000000000000000000000000000000000000000000000000000000000000000000000000
310
00000000000000000000000000000000000000000000000000000000000000000000000000000000000000000000000000000000000000000000000000000000000000000000000000000000000000000000000000000000000000000000000000000000000000000000000000000000000000000000000000000000000000
310
00000000000000000000000000000000000000000000000000000000000000000000000000000000000000000000000000000000000000000000000000000000000000000000000000000000000000000000000000000000000000000000000000000000000000000000000000000000000000000000000000000000000000
310
00000000000000000000000000000000000000000000000000000000000000000000000000000000000000000000000000000000000000000000000000000000000000000000000000000000000000000000000000000000000000000000000000000000000000000000000000000000000000000000000000000000000000
310
00000000000000000000000000000000000000000000000000000000000000000000000000000000000000000000000000000000000000000000000000000000000000000000000000000000000000000000000000000000000000000000000000000000000000000000000000000000000000000000000000000000000000
310
00000000000000000000000000000000000000000000000000000000000000000000000000000000000000000000000000000000000000000000000000000000000000000000000000000000000000000000000000000000000000000000000000000000000000000000000000000000000000000000000000000000000000
310
00000000000000000000000000000000000000000000000000000000000000000000000000000000000000000000000000000000000000000000000000000000000000000000000000000000000000000000000000000000000000000000000000000000000000000000000000000000000000000000000000000000000000
310
00000000000000000000000000000000000000000000000000000000000000000000000000000000000000000000000000000000000000000000000000000000000000000000000000000000000000000000000000000000000000000000000000000000000000000000000000000000000000000000000000000000000000
310
00000000000000000000000000000000000000000000000000000000000000000000000000000000000000000000000000000000000000000000000000000000000000000000000000000000000000000000000000000000000000000000000000000000000000000000000000000000000000000000000000000000000000
310
00000000000000000000000000000000000000000000000000000000000000000000000000000000000000000000000000000000000000000000000000000000000000000000000000000000000000000000000000000000000000000000000000000000000000000000000000000000000000000000000000000000000000
310
00000000000000000000000000000000000000000000000000000000000000000000000000000000000000000000000000000000000000000000000000000000000000000000000000000000000000000000000000000000000000000000000000000000000000000000000000000000000000000000000000000000000000
310
00000000000000000000000000000000000000000000000000000000000000000000000000000000000000000000000000000000000000000000000000000000000000000000000000000000000000000000000000000000000000000000000000000000000000000000000000000000000000000000000000000000000000
310
00000000000000000000000000000000000000000000000000000000000000000000000000000000000000000000000000000000000000000000000000000000000000000000000000000000000000000000000000000000000000000000000000000000000000000000000000000000000000000000000000000000000000
310
00000000000000000000000000000000000000000000000000000000000000000000000000000000000000000000000000000000000000000000000000000000000000000000000000000000000000000000000000000000000000000000000000000000000000000000000000000000000000000000000000000000000000
310
00000000000000000000000000000000000000000000000000000000000000000000000000000000000000000000000000000000000000000000000000000000000000000000000000000000000000000000000000000000000000000000000000000000000000000000000000000000000000000000000000000000000000
310
00000000000000000000000000000000000000000000000000000000000000000000000000000000000000000000000000000000000000000000000000000000000000000000000000000000000000000000000000000000000000000000000000000000000000000000000000000000000000000000000000000000000000
310
00000000000000000000000000000000000000000000000000000000000000000000000000000000000000000000000000000000000000000000000000000000000000000000000000000000000000000000000000000000000000000000000000000000000000000000000000000000000000000000000000000000000000
310
00000000000000000000000000000000000000000000000000000000000000000000000000000000000000000000000000000000000000000000000000000000000000000000000000000000000000000000000000000000000000000000000000000000000000000000000000000000000000000000000000000000000000
310
00000000000000000000000000000000000000000000000000000000000000000000000000000000000000000000000000000000000000000000000000000000000000000000000000000000000000000000000000000000000000000000000000000000000000000000000000000000000000000000000000000000000000
310
00000000000000000000000000000000000000000000000000000000000000000000000000000000000000000000000000000000000000000000000000000000000000000000000000000000000000000000000000000000000000000000000000000000000000000000000000000000000000000000000000000000000000
310
00000000000000000000000000000000000000000000000000000000000000000000000000000000000000000000000000000000000000000000000000000000000000000000000000000000000000000000000000000000000000000000000000000000000000000000000000000000000000000000000000000000000000
310
00000000000000000000000000000000000000000000000000000000000000000000000000000000000000000000000000000000000000000000000000000000000000000000000000000000000000000000000000000000000000000000000000000000000000000000000000000000000000000000000000000000000000
310
00000000000000000000000000000000000000000000000000000000000000000000000000000000000000000000000000000000000000000000000000000000000000000000000000000000000000000000000000000000000000000000000000000000000000000000000000000000000000000000000000000000000000
310
00000000000000000000000000000000000000000000000000000000000000000000000000000000000000000000000000000000000000000000000000000000000000000000000000000000000000000000000000000000000000000000000000000000000000000000000000000000000000000000000000000000000000
310
00000000000000000000000000000000000000000000000000000000000000000000000000000000000000000000000000000000000000000000000000000000000000000000000000000000000000000000000000000000000000000000000000000000000000000000000000000000000000000000000000000000000000
310
00000000000000000000000000000000000000000000000000000000000000000000000000000000000000000000000000000000000000000000000000000000000000000000000000000000000000000000000000000000000000000000000000000000000000000000000000000000000000000000000000000000000000
310
00000000000000000000000000000000000000000000000000000000000000000000000000000000000000000000000000000000000000000000000000000000000000000000000000000000000000000000000000000000000000000000000000000000000000000000000000000000000000000000000000000000000000
310
00000000000000000000000000000000000000000000000000000000000000000000000000000000000000000000000000000000000000000000000000000000000000000000000000000000000000000000000000000000000000000000000000000000000000000000000000000000000000000000000000000000000000
310
00000000000000000000000000000000000000000000000000000000000000000000000000000000000000000000000000000000000000000000000000000000000000000000000000000000000000000000000000000000000000000000000000000000000000000000000000000000000000000000000000000000000000
310
00000000000000000000000000000000000000000000000000000000000000000000000000000000000000000000000000000000000000000000000000000000000000000000000000000000000000000000000000000000000000000000000000000000000000000000000000000000000000000000000000000000000000
310
00000000000000000000000000000000000000000000000000000000000000000000000000000000000000000000000000000000000000000000000000000000000000000000000000000000000000000000000000000000000000000000000000000000000000000000000000000000000000000000000000000000000000
310
00000000000000000000000000000000000000000000000000000000000000000000000000000000000000000000000000000000000000000000000000000000000000000000000000000000000000000000000000000000000000000000000000000000000000000000000000000000000000000000000000000000000000
310
00000000000000000000000000000000000000000000000000000000000000000000000000000000000000000000000000000000000000000000000000000000000000000000000000000000000000000000000000000000000000000000000000000000000000000000000000000000000000000000000000000000000000
310
00000000000000000000000000000000000000000000000000000000000000000000000000000000
  0
XRECORD
  5
F169
102
{ACAD_REACTORS
330
F168
102
}
330
F168
100
AcDbXrecord
280
     1
102
DISPLAYNAME
  1
Metric50
102
FLAGS
 90
        0
  0
CELLSTYLEMAP
  5
F132
102
{ACAD_REACTORS
330
3660
102
}
330
3660
100
AcDbCellStyleMap
 90
        3
300
CELLSTYLE
  1
TABLEFORMAT_BEGIN
 90
        5
170
     1
 91
        0
 92
    32768
 62
   257
 93
        1
300
CONTENTFORMAT
  1
CONTENTFORMAT_BEGIN
 90
        0
 91
        0
 92
      512
 93
        0
300

 40
0.0
140
1.0
 94
        5
 62
     0
340
26
144
6.0
309
CONTENTFORMAT_END
171
     1
301
MARGIN
  1
CELLMARGIN_BEGIN
 40
1.5
 40
1.5
 40
1.5
 40
1.5
 40
0.18
 40
0.18
309
CELLMARGIN_END
 94
        6
 95
        1
302
GRIDFORMAT
  1
GRIDFORMAT_BEGIN
 90
        0
 91
        1
 62
     0
 92
       -2
340
0
 93
        0
 40
0.045
309
GRIDFORMAT_END
 95
        2
302
GRIDFORMAT
  1
GRIDFORMAT_BEGIN
 90
        0
 91
        1
 62
     0
 92
       -2
340
0
 93
        0
 40
0.045
309
GRIDFORMAT_END
 95
        4
302
GRIDFORMAT
  1
GRIDFORMAT_BEGIN
 90
        0
 91
        1
 62
     0
 92
       -2
340
0
 93
        0
 40
0.045
309
GRIDFORMAT_END
 95
        8
302
GRIDFORMAT
  1
GRIDFORMAT_BEGIN
 90
        0
 91
        1
 62
     0
 92
       -2
340
0
 93
        0
 40
0.045
309
GRIDFORMAT_END
 95
       16
302
GRIDFORMAT
  1
GRIDFORMAT_BEGIN
 90
        0
 91
        1
 62
     0
 92
       -2
340
0
 93
        0
 40
0.045
309
GRIDFORMAT_END
 95
       32
302
GRIDFORMAT
  1
GRIDFORMAT_BEGIN
 90
        0
 91
        1
 62
     0
 92
       -2
340
0
 93
        0
 40
0.045
309
GRIDFORMAT_END
309
TABLEFORMAT_END
  1
CELLSTYLE_BEGIN
 90
        1
 91
        1
300
_TITLE
309
CELLSTYLE_END
300
CELLSTYLE
  1
TABLEFORMAT_BEGIN
 90
        5
170
     1
 91
        0
 92
        0
 62
   257
 93
        1
300
CONTENTFORMAT
  1
CONTENTFORMAT_BEGIN
 90
        0
 91
        0
 92
      512
 93
        0
300

 40
0.0
140
1.0
 94
        5
 62
     0
340
26
144
4.5
309
CONTENTFORMAT_END
171
     1
301
MARGIN
  1
CELLMARGIN_BEGIN
 40
1.5
 40
1.5
 40
1.5
 40
1.5
 40
0.18
 40
0.18
309
CELLMARGIN_END
 94
        6
 95
        1
302
GRIDFORMAT
  1
GRIDFORMAT_BEGIN
 90
        0
 91
        1
 62
     0
 92
       -2
340
0
 93
        0
 40
0.045
309
GRIDFORMAT_END
 95
        2
302
GRIDFORMAT
  1
GRIDFORMAT_BEGIN
 90
        0
 91
        1
 62
     0
 92
       -2
340
0
 93
        0
 40
0.045
309
GRIDFORMAT_END
 95
        4
302
GRIDFORMAT
  1
GRIDFORMAT_BEGIN
 90
        0
 91
        1
 62
     0
 92
       -2
340
0
 93
        0
 40
0.045
309
GRIDFORMAT_END
 95
        8
302
GRIDFORMAT
  1
GRIDFORMAT_BEGIN
 90
        0
 91
        1
 62
     0
 92
       -2
340
0
 93
        0
 40
0.045
309
GRIDFORMAT_END
 95
       16
302
GRIDFORMAT
  1
GRIDFORMAT_BEGIN
 90
        0
 91
        1
 62
     0
 92
       -2
340
0
 93
        0
 40
0.045
309
GRIDFORMAT_END
 95
       32
302
GRIDFORMAT
  1
GRIDFORMAT_BEGIN
 90
        0
 91
        1
 62
     0
 92
       -2
340
0
 93
        0
 40
0.045
309
GRIDFORMAT_END
309
TABLEFORMAT_END
  1
CELLSTYLE_BEGIN
 90
        2
 91
        1
300
_HEADER
309
CELLSTYLE_END
300
CELLSTYLE
  1
TABLEFORMAT_BEGIN
 90
        5
170
     1
 91
        0
 92
        0
 62
   257
 93
        1
300
CONTENTFORMAT
  1
CONTENTFORMAT_BEGIN
 90
        0
 91
        0
 92
      512
 93
        0
300

 40
0.0
140
1.0
 94
        2
 62
     0
340
26
144
4.5
309
CONTENTFORMAT_END
171
     1
301
MARGIN
  1
CELLMARGIN_BEGIN
 40
1.5
 40
1.5
 40
1.5
 40
1.5
 40
0.18
 40
0.18
309
CELLMARGIN_END
 94
        6
 95
        1
302
GRIDFORMAT
  1
GRIDFORMAT_BEGIN
 90
        0
 91
        1
 62
     0
 92
       -2
340
0
 93
        0
 40
0.045
309
GRIDFORMAT_END
 95
        2
302
GRIDFORMAT
  1
GRIDFORMAT_BEGIN
 90
        0
 91
        1
 62
     0
 92
       -2
340
0
 93
        0
 40
0.045
309
GRIDFORMAT_END
 95
        4
302
GRIDFORMAT
  1
GRIDFORMAT_BEGIN
 90
        0
 91
        1
 62
     0
 92
       -2
340
0
 93
        0
 40
0.045
309
GRIDFORMAT_END
 95
        8
302
GRIDFORMAT
  1
GRIDFORMAT_BEGIN
 90
        0
 91
        1
 62
     0
 92
       -2
340
0
 93
        0
 40
0.045
309
GRIDFORMAT_END
 95
       16
302
GRIDFORMAT
  1
GRIDFORMAT_BEGIN
 90
        0
 91
        1
 62
     0
 92
       -2
340
0
 93
        0
 40
0.045
309
GRIDFORMAT_END
 95
       32
302
GRIDFORMAT
  1
GRIDFORMAT_BEGIN
 90
        0
 91
        1
 62
     0
 92
       -2
340
0
 93
        0
 40
0.045
309
GRIDFORMAT_END
309
TABLEFORMAT_END
  1
CELLSTYLE_BEGIN
 90
        3
 91
        2
300
_DATA
309
CELLSTYLE_END
  0
XRECORD
  5
F13F
102
{ACAD_REACTORS
330
F13E
102
}
330
F13E
100
AcDbXrecord
280
     1
102
RTVSPost2010Prop28
280
     1
102
RTVSPost2010PropOp28
 70
     1
102
RTVSPost2010Prop29
280
     1
102
RTVSPost2010PropOp29
 70
     1
102
RTVSPost2010Prop30
280
     0
102
RTVSPost2010PropOp30
 70
     1
102
RTVSPost2010Prop31
280
     0
102
RTVSPost2010PropOp31
 70
     1
102
RTVSPost2010Prop32
280
     0
102
RTVSPost2010PropOp32
 70
     1
102
RTVSPost2010Prop33
280
     0
102
RTVSPost2010PropOp33
 70
     1
102
RTVSPost2010Prop34
280
     0
102
RTVSPost2010PropOp34
 70
     1
102
RTVSPost2010Prop35
280
     0
102
RTVSPost2010PropOp35
 70
     1
102
RTVSPost2010Prop36
280
     0
102
RTVSPost2010PropOp36
 70
     1
102
RTVSPost2010Prop37
 90
       50
102
RTVSPost2010PropOp37
 70
     1
102
RTVSPost2010Prop38
140
0.0
102
RTVSPost2010PropOp38
 70
     1
102
RTVSPost2010Prop39
140
1.0
102
RTVSPost2010PropOp39
 70
     1
102
RTVSPost2010Prop40
 90
        0
102
RTVSPost2010PropOp40
 70
     1
102
RTVSPost2010Prop41ColorIndex
 90
       18
102
RTVSPost2010Prop41ColorRGB
 90
        0
102
RTVSPost2010PropOp41
 70
     1
102
RTVSPost2010Prop42
 90
       50
102
RTVSPost2010PropOp42
 70
     1
102
RTVSPost2010Prop43
 90
        3
102
RTVSPost2010PropOp43
 70
     1
102
RTVSPost2010Prop44ColorIndex
 90
        5
102
RTVSPost2010Prop44ColorRGB
 90
      255
102
RTVSPost2010PropOp44
 70
     1
102
RTVSPost2010Prop45
280
     0
102
RTVSPost2010PropOp45
 70
     1
102
RTVSPost2010Prop46
 90
       50
102
RTVSPost2010PropOp46
 70
     1
102
RTVSPost2010Prop47
 90
       50
102
RTVSPost2010PropOp47
 70
     1
102
RTVSPost2010Prop48
 90
       50
102
RTVSPost2010PropOp48
 70
     1
102
RTVSPost2010Prop49
280
     0
102
RTVSPost2010PropOp49
 70
     1
102
RTVSPost2010Prop50
 90
       50
102
RTVSPost2010PropOp50
 70
     1
102
RTVSPost2010Prop51ColorIndex
 90
      256
102
RTVSPost2010Prop51ColorRGB
 90
-16777216
102
RTVSPost2010PropOp51
 70
     0
102
RTVSPost2010Prop52
140
1.0
102
RTVSPost2010PropOp52
 70
     0
102
RTVSPost2010Prop53
 90
        2
102
RTVSPost2010PropOp53
 70
     1
102
RTVSPost2010Prop54
  1
strokes_ogs.tif
102
RTVSPost2010PropOp54
 70
     1
102
RTVSPost2010Prop55
280
     0
102
RTVSPost2010PropOp55
 70
     1
102
RTVSPost2010Prop56
140
1.0
102
RTVSPost2010PropOp56
 70
     1
102
RTVSPost2010Prop57
140
1.0
102
RTVSPost2010PropOp57
 70
     1
  0
XRECORD
  5
F143
102
{ACAD_REACTORS
330
F142
102
}
330
F142
100
AcDbXrecord
280
     1
102
RTVSPost2010Prop28
280
     0
102
RTVSPost2010PropOp28
 70
     1
102
RTVSPost2010Prop29
280
     1
102
RTVSPost2010PropOp29
 70
     1
102
RTVSPost2010Prop30
280
     1
102
RTVSPost2010PropOp30
 70
     1
102
RTVSPost2010Prop31
280
     0
102
RTVSPost2010PropOp31
 70
     1
102
RTVSPost2010Prop32
280
     0
102
RTVSPost2010PropOp32
 70
     1
102
RTVSPost2010Prop33
280
     0
102
RTVSPost2010PropOp33
 70
     1
102
RTVSPost2010Prop34
280
     0
102
RTVSPost2010PropOp34
 70
     1
102
RTVSPost2010Prop35
280
     0
102
RTVSPost2010PropOp35
 70
     1
102
RTVSPost2010Prop36
280
     0
102
RTVSPost2010PropOp36
 70
     1
102
RTVSPost2010Prop37
 90
       50
102
RTVSPost2010PropOp37
 70
     1
102
RTVSPost2010Prop38
140
0.0
102
RTVSPost2010PropOp38
 70
     1
102
RTVSPost2010Prop39
140
1.0
102
RTVSPost2010PropOp39
 70
     1
102
RTVSPost2010Prop40
 90
        0
102
RTVSPost2010PropOp40
 70
     1
102
RTVSPost2010Prop41ColorIndex
 90
       18
102
RTVSPost2010Prop41ColorRGB
 90
        0
102
RTVSPost2010PropOp41
 70
     1
102
RTVSPost2010Prop42
 90
       50
102
RTVSPost2010PropOp42
 70
     1
102
RTVSPost2010Prop43
 90
        3
102
RTVSPost2010PropOp43
 70
     1
102
RTVSPost2010Prop44ColorIndex
 90
        5
102
RTVSPost2010Prop44ColorRGB
 90
      255
102
RTVSPost2010PropOp44
 70
     1
102
RTVSPost2010Prop45
280
     0
102
RTVSPost2010PropOp45
 70
     1
102
RTVSPost2010Prop46
 90
       50
102
RTVSPost2010PropOp46
 70
     1
102
RTVSPost2010Prop47
 90
       50
102
RTVSPost2010PropOp47
 70
     1
102
RTVSPost2010Prop48
 90
       50
102
RTVSPost2010PropOp48
 70
     1
102
RTVSPost2010Prop49
280
     0
102
RTVSPost2010PropOp49
 70
     1
102
RTVSPost2010Prop50
 90
       50
102
RTVSPost2010PropOp50
 70
     1
102
RTVSPost2010Prop51ColorIndex
 90
      256
102
RTVSPost2010Prop51ColorRGB
 90
-16777216
102
RTVSPost2010PropOp51
 70
     0
102
RTVSPost2010Prop52
140
1.0
102
RTVSPost2010PropOp52
 70
     0
102
RTVSPost2010Prop53
 90
        2
102
RTVSPost2010PropOp53
 70
     1
102
RTVSPost2010Prop54
  1
strokes_ogs.tif
102
RTVSPost2010PropOp54
 70
     1
102
RTVSPost2010Prop55
280
     0
102
RTVSPost2010PropOp55
 70
     1
102
RTVSPost2010Prop56
140
1.0
102
RTVSPost2010PropOp56
 70
     1
102
RTVSPost2010Prop57
140
1.0
102
RTVSPost2010PropOp57
 70
     1
  0
XRECORD
  5
F141
102
{ACAD_REACTORS
330
F140
102
}
330
F140
100
AcDbXrecord
280
     1
102
RTVSPost2010Prop28
280
     0
102
RTVSPost2010PropOp28
 70
     1
102
RTVSPost2010Prop29
280
     1
102
RTVSPost2010PropOp29
 70
     1
102
RTVSPost2010Prop30
280
     1
102
RTVSPost2010PropOp30
 70
     1
102
RTVSPost2010Prop31
280
     0
102
RTVSPost2010PropOp31
 70
     1
102
RTVSPost2010Prop32
280
     0
102
RTVSPost2010PropOp32
 70
     1
102
RTVSPost2010Prop33
280
     0
102
RTVSPost2010PropOp33
 70
     1
102
RTVSPost2010Prop34
280
     0
102
RTVSPost2010PropOp34
 70
     1
102
RTVSPost2010Prop35
280
     0
102
RTVSPost2010PropOp35
 70
     1
102
RTVSPost2010Prop36
280
     0
102
RTVSPost2010PropOp36
 70
     1
102
RTVSPost2010Prop37
 90
       50
102
RTVSPost2010PropOp37
 70
     1
102
RTVSPost2010Prop38
140
0.0
102
RTVSPost2010PropOp38
 70
     1
102
RTVSPost2010Prop39
140
1.0
102
RTVSPost2010PropOp39
 70
     1
102
RTVSPost2010Prop40
 90
        0
102
RTVSPost2010PropOp40
 70
     1
102
RTVSPost2010Prop41ColorIndex
 90
       18
102
RTVSPost2010Prop41ColorRGB
 90
        0
102
RTVSPost2010PropOp41
 70
     1
102
RTVSPost2010Prop42
 90
       50
102
RTVSPost2010PropOp42
 70
     1
102
RTVSPost2010Prop43
 90
        3
102
RTVSPost2010PropOp43
 70
     1
102
RTVSPost2010Prop44ColorIndex
 90
        5
102
RTVSPost2010Prop44ColorRGB
 90
      255
102
RTVSPost2010PropOp44
 70
     1
102
RTVSPost2010Prop45
280
     0
102
RTVSPost2010PropOp45
 70
     1
102
RTVSPost2010Prop46
 90
       50
102
RTVSPost2010PropOp46
 70
     1
102
RTVSPost2010Prop47
 90
       50
102
RTVSPost2010PropOp47
 70
     1
102
RTVSPost2010Prop48
 90
       50
102
RTVSPost2010PropOp48
 70
     1
102
RTVSPost2010Prop49
280
     0
102
RTVSPost2010PropOp49
 70
     1
102
RTVSPost2010Prop50
 90
       50
102
RTVSPost2010PropOp50
 70
     1
102
RTVSPost2010Prop51ColorIndex
 90
      256
102
RTVSPost2010Prop51ColorRGB
 90
-16777216
102
RTVSPost2010PropOp51
 70
     0
102
RTVSPost2010Prop52
140
1.0
102
RTVSPost2010PropOp52
 70
     0
102
RTVSPost2010Prop53
 90
        2
102
RTVSPost2010PropOp53
 70
     1
102
RTVSPost2010Prop54
  1
strokes_ogs.tif
102
RTVSPost2010PropOp54
 70
     1
102
RTVSPost2010Prop55
280
     0
102
RTVSPost2010PropOp55
 70
     1
102
RTVSPost2010Prop56
140
1.0
102
RTVSPost2010PropOp56
 70
     1
102
RTVSPost2010Prop57
140
1.0
102
RTVSPost2010PropOp57
 70
     1
  0
XRECORD
  5
F13D
102
{ACAD_REACTORS
330
F13C
102
}
330
F13C
100
AcDbXrecord
280
     1
102
RTVSPost2010Prop28
280
     0
102
RTVSPost2010PropOp28
 70
     1
102
RTVSPost2010Prop29
280
     1
102
RTVSPost2010PropOp29
 70
     1
102
RTVSPost2010Prop30
280
     1
102
RTVSPost2010PropOp30
 70
     1
102
RTVSPost2010Prop31
280
     0
102
RTVSPost2010PropOp31
 70
     1
102
RTVSPost2010Prop32
280
     0
102
RTVSPost2010PropOp32
 70
     1
102
RTVSPost2010Prop33
280
     0
102
RTVSPost2010PropOp33
 70
     1
102
RTVSPost2010Prop34
280
     0
102
RTVSPost2010PropOp34
 70
     1
102
RTVSPost2010Prop35
280
     0
102
RTVSPost2010PropOp35
 70
     1
102
RTVSPost2010Prop36
280
     0
102
RTVSPost2010PropOp36
 70
     1
102
RTVSPost2010Prop37
 90
       50
102
RTVSPost2010PropOp37
 70
     1
102
RTVSPost2010Prop38
140
0.0
102
RTVSPost2010PropOp38
 70
     1
102
RTVSPost2010Prop39
140
1.0
102
RTVSPost2010PropOp39
 70
     1
102
RTVSPost2010Prop40
 90
        0
102
RTVSPost2010PropOp40
 70
     1
102
RTVSPost2010Prop41ColorIndex
 90
       18
102
RTVSPost2010Prop41ColorRGB
 90
        0
102
RTVSPost2010PropOp41
 70
     1
102
RTVSPost2010Prop42
 90
       50
102
RTVSPost2010PropOp42
 70
     1
102
RTVSPost2010Prop43
 90
        3
102
RTVSPost2010PropOp43
 70
     1
102
RTVSPost2010Prop44ColorIndex
 90
        5
102
RTVSPost2010Prop44ColorRGB
 90
      255
102
RTVSPost2010PropOp44
 70
     1
102
RTVSPost2010Prop45
280
     0
102
RTVSPost2010PropOp45
 70
     1
102
RTVSPost2010Prop46
 90
       50
102
RTVSPost2010PropOp46
 70
     1
102
RTVSPost2010Prop47
 90
       50
102
RTVSPost2010PropOp47
 70
     1
102
RTVSPost2010Prop48
 90
       50
102
RTVSPost2010PropOp48
 70
     1
102
RTVSPost2010Prop49
280
     0
102
RTVSPost2010PropOp49
 70
     1
102
RTVSPost2010Prop50
 90
       50
102
RTVSPost2010PropOp50
 70
     1
102
RTVSPost2010Prop51ColorIndex
 90
      256
102
RTVSPost2010Prop51ColorRGB
 90
-16777216
102
RTVSPost2010PropOp51
 70
     0
102
RTVSPost2010Prop52
140
1.0
102
RTVSPost2010PropOp52
 70
     0
102
RTVSPost2010Prop53
 90
        2
102
RTVSPost2010PropOp53
 70
     1
102
RTVSPost2010Prop54
  1
strokes_ogs.tif
102
RTVSPost2010PropOp54
 70
     1
102
RTVSPost2010Prop55
280
     0
102
RTVSPost2010PropOp55
 70
     1
102
RTVSPost2010Prop56
140
1.0
102
RTVSPost2010PropOp56
 70
     1
102
RTVSPost2010Prop57
140
1.0
102
RTVSPost2010PropOp57
 70
     1
  0
XRECORD
  5
F14B
102
{ACAD_REACTORS
330
F14A
102
}
330
F14A
100
AcDbXrecord
280
     1
102
RTVSPost2010Prop28
280
     0
102
RTVSPost2010PropOp28
 70
     1
102
RTVSPost2010Prop29
280
     1
102
RTVSPost2010PropOp29
 70
     1
102
RTVSPost2010Prop30
280
     1
102
RTVSPost2010PropOp30
 70
     1
102
RTVSPost2010Prop31
280
     0
102
RTVSPost2010PropOp31
 70
     1
102
RTVSPost2010Prop32
280
     0
102
RTVSPost2010PropOp32
 70
     1
102
RTVSPost2010Prop33
280
     0
102
RTVSPost2010PropOp33
 70
     1
102
RTVSPost2010Prop34
280
     0
102
RTVSPost2010PropOp34
 70
     1
102
RTVSPost2010Prop35
280
     0
102
RTVSPost2010PropOp35
 70
     1
102
RTVSPost2010Prop36
280
     0
102
RTVSPost2010PropOp36
 70
     1
102
RTVSPost2010Prop37
 90
       50
102
RTVSPost2010PropOp37
 70
     1
102
RTVSPost2010Prop38
140
0.0
102
RTVSPost2010PropOp38
 70
     1
102
RTVSPost2010Prop39
140
1.0
102
RTVSPost2010PropOp39
 70
     1
102
RTVSPost2010Prop40
 90
        0
102
RTVSPost2010PropOp40
 70
     1
102
RTVSPost2010Prop41ColorIndex
 90
       18
102
RTVSPost2010Prop41ColorRGB
 90
        0
102
RTVSPost2010PropOp41
 70
     1
102
RTVSPost2010Prop42
 90
       50
102
RTVSPost2010PropOp42
 70
     1
102
RTVSPost2010Prop43
 90
        3
102
RTVSPost2010PropOp43
 70
     1
102
RTVSPost2010Prop44ColorIndex
 90
        5
102
RTVSPost2010Prop44ColorRGB
 90
      255
102
RTVSPost2010PropOp44
 70
     1
102
RTVSPost2010Prop45
280
     0
102
RTVSPost2010PropOp45
 70
     1
102
RTVSPost2010Prop46
 90
       50
102
RTVSPost2010PropOp46
 70
     1
102
RTVSPost2010Prop47
 90
       50
102
RTVSPost2010PropOp47
 70
     1
102
RTVSPost2010Prop48
 90
       50
102
RTVSPost2010PropOp48
 70
     1
102
RTVSPost2010Prop49
280
     0
102
RTVSPost2010PropOp49
 70
     1
102
RTVSPost2010Prop50
 90
       50
102
RTVSPost2010PropOp50
 70
     1
102
RTVSPost2010Prop51ColorIndex
 90
      256
102
RTVSPost2010Prop51ColorRGB
 90
-16777216
102
RTVSPost2010PropOp51
 70
     0
102
RTVSPost2010Prop52
140
1.0
102
RTVSPost2010PropOp52
 70
     0
102
RTVSPost2010Prop53
 90
        2
102
RTVSPost2010PropOp53
 70
     1
102
RTVSPost2010Prop54
  1
strokes_ogs.tif
102
RTVSPost2010PropOp54
 70
     1
102
RTVSPost2010Prop55
280
     0
102
RTVSPost2010PropOp55
 70
     1
102
RTVSPost2010Prop56
140
1.0
102
RTVSPost2010PropOp56
 70
     1
102
RTVSPost2010Prop57
140
1.0
102
RTVSPost2010PropOp57
 70
     1
  0
XRECORD
  5
F153
102
{ACAD_REACTORS
330
F152
102
}
330
F152
100
AcDbXrecord
280
     1
102
RTVSPost2010Prop28
280
     0
102
RTVSPost2010PropOp28
 70
     1
102
RTVSPost2010Prop29
280
     1
102
RTVSPost2010PropOp29
 70
     1
102
RTVSPost2010Prop30
280
     1
102
RTVSPost2010PropOp30
 70
     1
102
RTVSPost2010Prop31
280
     0
102
RTVSPost2010PropOp31
 70
     1
102
RTVSPost2010Prop32
280
     0
102
RTVSPost2010PropOp32
 70
     1
102
RTVSPost2010Prop33
280
     0
102
RTVSPost2010PropOp33
 70
     1
102
RTVSPost2010Prop34
280
     0
102
RTVSPost2010PropOp34
 70
     1
102
RTVSPost2010Prop35
280
     0
102
RTVSPost2010PropOp35
 70
     1
102
RTVSPost2010Prop36
280
     0
102
RTVSPost2010PropOp36
 70
     1
102
RTVSPost2010Prop37
 90
       50
102
RTVSPost2010PropOp37
 70
     1
102
RTVSPost2010Prop38
140
0.0
102
RTVSPost2010PropOp38
 70
     1
102
RTVSPost2010Prop39
140
1.0
102
RTVSPost2010PropOp39
 70
     1
102
RTVSPost2010Prop40
 90
        0
102
RTVSPost2010PropOp40
 70
     1
102
RTVSPost2010Prop41ColorIndex
 90
       18
102
RTVSPost2010Prop41ColorRGB
 90
        0
102
RTVSPost2010PropOp41
 70
     1
102
RTVSPost2010Prop42
 90
       50
102
RTVSPost2010PropOp42
 70
     1
102
RTVSPost2010Prop43
 90
        3
102
RTVSPost2010PropOp43
 70
     1
102
RTVSPost2010Prop44ColorIndex
 90
        5
102
RTVSPost2010Prop44ColorRGB
 90
      255
102
RTVSPost2010PropOp44
 70
     1
102
RTVSPost2010Prop45
280
     0
102
RTVSPost2010PropOp45
 70
     1
102
RTVSPost2010Prop46
 90
       50
102
RTVSPost2010PropOp46
 70
     1
102
RTVSPost2010Prop47
 90
       50
102
RTVSPost2010PropOp47
 70
     1
102
RTVSPost2010Prop48
 90
       50
102
RTVSPost2010PropOp48
 70
     1
102
RTVSPost2010Prop49
280
     0
102
RTVSPost2010PropOp49
 70
     1
102
RTVSPost2010Prop50
 90
       50
102
RTVSPost2010PropOp50
 70
     1
102
RTVSPost2010Prop51ColorIndex
 90
      256
102
RTVSPost2010Prop51ColorRGB
 90
-16777216
102
RTVSPost2010PropOp51
 70
     0
102
RTVSPost2010Prop52
140
1.0
102
RTVSPost2010PropOp52
 70
     0
102
RTVSPost2010Prop53
 90
        2
102
RTVSPost2010PropOp53
 70
     1
102
RTVSPost2010Prop54
  1
strokes_ogs.tif
102
RTVSPost2010PropOp54
 70
     1
102
RTVSPost2010Prop55
280
     0
102
RTVSPost2010PropOp55
 70
     1
102
RTVSPost2010Prop56
140
1.0
102
RTVSPost2010PropOp56
 70
     1
102
RTVSPost2010Prop57
140
1.0
102
RTVSPost2010PropOp57
 70
     1
  0
XRECORD
  5
F145
102
{ACAD_REACTORS
330
F144
102
}
330
F144
100
AcDbXrecord
280
     1
102
RTVSPost2010Prop28
280
     0
102
RTVSPost2010PropOp28
 70
     1
102
RTVSPost2010Prop29
280
     1
102
RTVSPost2010PropOp29
 70
     1
102
RTVSPost2010Prop30
280
     1
102
RTVSPost2010PropOp30
 70
     1
102
RTVSPost2010Prop31
280
     0
102
RTVSPost2010PropOp31
 70
     1
102
RTVSPost2010Prop32
280
     0
102
RTVSPost2010PropOp32
 70
     1
102
RTVSPost2010Prop33
280
     0
102
RTVSPost2010PropOp33
 70
     1
102
RTVSPost2010Prop34
280
     0
102
RTVSPost2010PropOp34
 70
     1
102
RTVSPost2010Prop35
280
     0
102
RTVSPost2010PropOp35
 70
     1
102
RTVSPost2010Prop36
280
     0
102
RTVSPost2010PropOp36
 70
     1
102
RTVSPost2010Prop37
 90
       50
102
RTVSPost2010PropOp37
 70
     1
102
RTVSPost2010Prop38
140
0.0
102
RTVSPost2010PropOp38
 70
     1
102
RTVSPost2010Prop39
140
1.0
102
RTVSPost2010PropOp39
 70
     1
102
RTVSPost2010Prop40
 90
        0
102
RTVSPost2010PropOp40
 70
     1
102
RTVSPost2010Prop41ColorIndex
 90
       18
102
RTVSPost2010Prop41ColorRGB
 90
        0
102
RTVSPost2010PropOp41
 70
     1
102
RTVSPost2010Prop42
 90
       50
102
RTVSPost2010PropOp42
 70
     1
102
RTVSPost2010Prop43
 90
        3
102
RTVSPost2010PropOp43
 70
     1
102
RTVSPost2010Prop44ColorIndex
 90
        5
102
RTVSPost2010Prop44ColorRGB
 90
      255
102
RTVSPost2010PropOp44
 70
     1
102
RTVSPost2010Prop45
280
     0
102
RTVSPost2010PropOp45
 70
     1
102
RTVSPost2010Prop46
 90
       50
102
RTVSPost2010PropOp46
 70
     1
102
RTVSPost2010Prop47
 90
       50
102
RTVSPost2010PropOp47
 70
     1
102
RTVSPost2010Prop48
 90
       50
102
RTVSPost2010PropOp48
 70
     1
102
RTVSPost2010Prop49
280
     0
102
RTVSPost2010PropOp49
 70
     1
102
RTVSPost2010Prop50
 90
       50
102
RTVSPost2010PropOp50
 70
     1
102
RTVSPost2010Prop51ColorIndex
 90
      256
102
RTVSPost2010Prop51ColorRGB
 90
-16777216
102
RTVSPost2010PropOp51
 70
     0
102
RTVSPost2010Prop52
140
1.0
102
RTVSPost2010PropOp52
 70
     0
102
RTVSPost2010Prop53
 90
        2
102
RTVSPost2010PropOp53
 70
     1
102
RTVSPost2010Prop54
  1
strokes_ogs.tif
102
RTVSPost2010PropOp54
 70
     1
102
RTVSPost2010Prop55
280
     0
102
RTVSPost2010PropOp55
 70
     1
102
RTVSPost2010Prop56
140
1.0
102
RTVSPost2010PropOp56
 70
     1
102
RTVSPost2010Prop57
140
1.0
102
RTVSPost2010PropOp57
 70
     1
  0
XRECORD
  5
F149
102
{ACAD_REACTORS
330
F148
102
}
330
F148
100
AcDbXrecord
280
     1
102
RTVSPost2010Prop28
280
     0
102
RTVSPost2010PropOp28
 70
     1
102
RTVSPost2010Prop29
280
     1
102
RTVSPost2010PropOp29
 70
     1
102
RTVSPost2010Prop30
280
     1
102
RTVSPost2010PropOp30
 70
     1
102
RTVSPost2010Prop31
280
     0
102
RTVSPost2010PropOp31
 70
     1
102
RTVSPost2010Prop32
280
     0
102
RTVSPost2010PropOp32
 70
     1
102
RTVSPost2010Prop33
280
     0
102
RTVSPost2010PropOp33
 70
     1
102
RTVSPost2010Prop34
280
     0
102
RTVSPost2010PropOp34
 70
     1
102
RTVSPost2010Prop35
280
     0
102
RTVSPost2010PropOp35
 70
     1
102
RTVSPost2010Prop36
280
     0
102
RTVSPost2010PropOp36
 70
     1
102
RTVSPost2010Prop37
 90
       50
102
RTVSPost2010PropOp37
 70
     1
102
RTVSPost2010Prop38
140
0.0
102
RTVSPost2010PropOp38
 70
     1
102
RTVSPost2010Prop39
140
1.0
102
RTVSPost2010PropOp39
 70
     1
102
RTVSPost2010Prop40
 90
        0
102
RTVSPost2010PropOp40
 70
     1
102
RTVSPost2010Prop41ColorIndex
 90
       18
102
RTVSPost2010Prop41ColorRGB
 90
        0
102
RTVSPost2010PropOp41
 70
     1
102
RTVSPost2010Prop42
 90
       50
102
RTVSPost2010PropOp42
 70
     1
102
RTVSPost2010Prop43
 90
        3
102
RTVSPost2010PropOp43
 70
     1
102
RTVSPost2010Prop44ColorIndex
 90
        5
102
RTVSPost2010Prop44ColorRGB
 90
      255
102
RTVSPost2010PropOp44
 70
     1
102
RTVSPost2010Prop45
280
     0
102
RTVSPost2010PropOp45
 70
     1
102
RTVSPost2010Prop46
 90
       50
102
RTVSPost2010PropOp46
 70
     1
102
RTVSPost2010Prop47
 90
       50
102
RTVSPost2010PropOp47
 70
     1
102
RTVSPost2010Prop48
 90
       50
102
RTVSPost2010PropOp48
 70
     1
102
RTVSPost2010Prop49
280
     0
102
RTVSPost2010PropOp49
 70
     1
102
RTVSPost2010Prop50
 90
       50
102
RTVSPost2010PropOp50
 70
     1
102
RTVSPost2010Prop51ColorIndex
 90
      256
102
RTVSPost2010Prop51ColorRGB
 90
-16777216
102
RTVSPost2010PropOp51
 70
     0
102
RTVSPost2010Prop52
140
1.0
102
RTVSPost2010PropOp52
 70
     0
102
RTVSPost2010Prop53
 90
        2
102
RTVSPost2010PropOp53
 70
     1
102
RTVSPost2010Prop54
  1
strokes_ogs.tif
102
RTVSPost2010PropOp54
 70
     1
102
RTVSPost2010Prop55
280
     0
102
RTVSPost2010PropOp55
 70
     1
102
RTVSPost2010Prop56
140
1.0
102
RTVSPost2010PropOp56
 70
     1
102
RTVSPost2010Prop57
140
1.0
102
RTVSPost2010PropOp57
 70
     1
  0
XRECORD
  5
F159
102
{ACAD_REACTORS
330
F158
102
}
330
F158
100
AcDbXrecord
280
     1
102
RTVSPost2010Prop28
280
     0
102
RTVSPost2010PropOp28
 70
     1
102
RTVSPost2010Prop29
280
     1
102
RTVSPost2010PropOp29
 70
     1
102
RTVSPost2010Prop30
280
     1
102
RTVSPost2010PropOp30
 70
     1
102
RTVSPost2010Prop31
280
     0
102
RTVSPost2010PropOp31
 70
     1
102
RTVSPost2010Prop32
280
     0
102
RTVSPost2010PropOp32
 70
     1
102
RTVSPost2010Prop33
280
     0
102
RTVSPost2010PropOp33
 70
     1
102
RTVSPost2010Prop34
280
     0
102
RTVSPost2010PropOp34
 70
     1
102
RTVSPost2010Prop35
280
     0
102
RTVSPost2010PropOp35
 70
     1
102
RTVSPost2010Prop36
280
     0
102
RTVSPost2010PropOp36
 70
     1
102
RTVSPost2010Prop37
 90
       50
102
RTVSPost2010PropOp37
 70
     1
102
RTVSPost2010Prop38
140
0.0
102
RTVSPost2010PropOp38
 70
     1
102
RTVSPost2010Prop39
140
1.0
102
RTVSPost2010PropOp39
 70
     1
102
RTVSPost2010Prop40
 90
        0
102
RTVSPost2010PropOp40
 70
     1
102
RTVSPost2010Prop41ColorIndex
 90
       18
102
RTVSPost2010Prop41ColorRGB
 90
        0
102
RTVSPost2010PropOp41
 70
     1
102
RTVSPost2010Prop42
 90
       50
102
RTVSPost2010PropOp42
 70
     1
102
RTVSPost2010Prop43
 90
        3
102
RTVSPost2010PropOp43
 70
     1
102
RTVSPost2010Prop44ColorIndex
 90
        5
102
RTVSPost2010Prop44ColorRGB
 90
      255
102
RTVSPost2010PropOp44
 70
     1
102
RTVSPost2010Prop45
280
     0
102
RTVSPost2010PropOp45
 70
     1
102
RTVSPost2010Prop46
 90
       50
102
RTVSPost2010PropOp46
 70
     1
102
RTVSPost2010Prop47
 90
       50
102
RTVSPost2010PropOp47
 70
     1
102
RTVSPost2010Prop48
 90
       50
102
RTVSPost2010PropOp48
 70
     1
102
RTVSPost2010Prop49
280
     0
102
RTVSPost2010PropOp49
 70
     1
102
RTVSPost2010Prop50
 90
       50
102
RTVSPost2010PropOp50
 70
     1
102
RTVSPost2010Prop51ColorIndex
 90
      256
102
RTVSPost2010Prop51ColorRGB
 90
-16777216
102
RTVSPost2010PropOp51
 70
     0
102
RTVSPost2010Prop52
140
1.0
102
RTVSPost2010PropOp52
 70
     0
102
RTVSPost2010Prop53
 90
        2
102
RTVSPost2010PropOp53
 70
     1
102
RTVSPost2010Prop54
  1
strokes_ogs.tif
102
RTVSPost2010PropOp54
 70
     1
102
RTVSPost2010Prop55
280
     0
102
RTVSPost2010PropOp55
 70
     1
102
RTVSPost2010Prop56
140
1.0
102
RTVSPost2010PropOp56
 70
     1
102
RTVSPost2010Prop57
140
1.0
102
RTVSPost2010PropOp57
 70
     1
  0
XRECORD
  5
F151
102
{ACAD_REACTORS
330
F150
102
}
330
F150
100
AcDbXrecord
280
     1
102
RTVSPost2010Prop28
280
     0
102
RTVSPost2010PropOp28
 70
     1
102
RTVSPost2010Prop29
280
     1
102
RTVSPost2010PropOp29
 70
     1
102
RTVSPost2010Prop30
280
     1
102
RTVSPost2010PropOp30
 70
     1
102
RTVSPost2010Prop31
280
     0
102
RTVSPost2010PropOp31
 70
     1
102
RTVSPost2010Prop32
280
     0
102
RTVSPost2010PropOp32
 70
     1
102
RTVSPost2010Prop33
280
     0
102
RTVSPost2010PropOp33
 70
     1
102
RTVSPost2010Prop34
280
     0
102
RTVSPost2010PropOp34
 70
     1
102
RTVSPost2010Prop35
280
     0
102
RTVSPost2010PropOp35
 70
     1
102
RTVSPost2010Prop36
280
     0
102
RTVSPost2010PropOp36
 70
     1
102
RTVSPost2010Prop37
 90
       50
102
RTVSPost2010PropOp37
 70
     1
102
RTVSPost2010Prop38
140
0.0
102
RTVSPost2010PropOp38
 70
     1
102
RTVSPost2010Prop39
140
1.0
102
RTVSPost2010PropOp39
 70
     1
102
RTVSPost2010Prop40
 90
        0
102
RTVSPost2010PropOp40
 70
     1
102
RTVSPost2010Prop41ColorIndex
 90
       18
102
RTVSPost2010Prop41ColorRGB
 90
        0
102
RTVSPost2010PropOp41
 70
     1
102
RTVSPost2010Prop42
 90
       50
102
RTVSPost2010PropOp42
 70
     1
102
RTVSPost2010Prop43
 90
        3
102
RTVSPost2010PropOp43
 70
     1
102
RTVSPost2010Prop44ColorIndex
 90
        5
102
RTVSPost2010Prop44ColorRGB
 90
      255
102
RTVSPost2010PropOp44
 70
     1
102
RTVSPost2010Prop45
280
     0
102
RTVSPost2010PropOp45
 70
     1
102
RTVSPost2010Prop46
 90
       50
102
RTVSPost2010PropOp46
 70
     1
102
RTVSPost2010Prop47
 90
       50
102
RTVSPost2010PropOp47
 70
     1
102
RTVSPost2010Prop48
 90
       50
102
RTVSPost2010PropOp48
 70
     1
102
RTVSPost2010Prop49
280
     0
102
RTVSPost2010PropOp49
 70
     1
102
RTVSPost2010Prop50
 90
       50
102
RTVSPost2010PropOp50
 70
     1
102
RTVSPost2010Prop51ColorIndex
 90
      256
102
RTVSPost2010Prop51ColorRGB
 90
-16777216
102
RTVSPost2010PropOp51
 70
     0
102
RTVSPost2010Prop52
140
1.0
102
RTVSPost2010PropOp52
 70
     0
102
RTVSPost2010Prop53
 90
        2
102
RTVSPost2010PropOp53
 70
     1
102
RTVSPost2010Prop54
  1
strokes_ogs.tif
102
RTVSPost2010PropOp54
 70
     1
102
RTVSPost2010Prop55
280
     0
102
RTVSPost2010PropOp55
 70
     1
102
RTVSPost2010Prop56
140
1.0
102
RTVSPost2010PropOp56
 70
     1
102
RTVSPost2010Prop57
140
1.0
102
RTVSPost2010PropOp57
 70
     1
  0
XRECORD
  5
F135
102
{ACAD_REACTORS
330
F134
102
}
330
F134
100
AcDbXrecord
280
     1
102
RTVSPost2010Prop28
280
     0
102
RTVSPost2010PropOp28
 70
     1
102
RTVSPost2010Prop29
280
     1
102
RTVSPost2010PropOp29
 70
     1
102
RTVSPost2010Prop30
280
     1
102
RTVSPost2010PropOp30
 70
     1
102
RTVSPost2010Prop31
280
     0
102
RTVSPost2010PropOp31
 70
     1
102
RTVSPost2010Prop32
280
     0
102
RTVSPost2010PropOp32
 70
     1
102
RTVSPost2010Prop33
280
     0
102
RTVSPost2010PropOp33
 70
     1
102
RTVSPost2010Prop34
280
     0
102
RTVSPost2010PropOp34
 70
     1
102
RTVSPost2010Prop35
280
     0
102
RTVSPost2010PropOp35
 70
     1
102
RTVSPost2010Prop36
280
     0
102
RTVSPost2010PropOp36
 70
     1
102
RTVSPost2010Prop37
 90
       50
102
RTVSPost2010PropOp37
 70
     1
102
RTVSPost2010Prop38
140
0.0
102
RTVSPost2010PropOp38
 70
     1
102
RTVSPost2010Prop39
140
1.0
102
RTVSPost2010PropOp39
 70
     1
102
RTVSPost2010Prop40
 90
        0
102
RTVSPost2010PropOp40
 70
     1
102
RTVSPost2010Prop41ColorIndex
 90
       18
102
RTVSPost2010Prop41ColorRGB
 90
        0
102
RTVSPost2010PropOp41
 70
     1
102
RTVSPost2010Prop42
 90
       50
102
RTVSPost2010PropOp42
 70
     1
102
RTVSPost2010Prop43
 90
        3
102
RTVSPost2010PropOp43
 70
     1
102
RTVSPost2010Prop44ColorIndex
 90
        5
102
RTVSPost2010Prop44ColorRGB
 90
      255
102
RTVSPost2010PropOp44
 70
     1
102
RTVSPost2010Prop45
280
     0
102
RTVSPost2010PropOp45
 70
     1
102
RTVSPost2010Prop46
 90
       50
102
RTVSPost2010PropOp46
 70
     1
102
RTVSPost2010Prop47
 90
       50
102
RTVSPost2010PropOp47
 70
     1
102
RTVSPost2010Prop48
 90
       50
102
RTVSPost2010PropOp48
 70
     1
102
RTVSPost2010Prop49
280
     0
102
RTVSPost2010PropOp49
 70
     1
102
RTVSPost2010Prop50
 90
       50
102
RTVSPost2010PropOp50
 70
     1
102
RTVSPost2010Prop51ColorIndex
 90
      256
102
RTVSPost2010Prop51ColorRGB
 90
-16777216
102
RTVSPost2010PropOp51
 70
     0
102
RTVSPost2010Prop52
140
1.0
102
RTVSPost2010PropOp52
 70
     0
102
RTVSPost2010Prop53
 90
        2
102
RTVSPost2010PropOp53
 70
     1
102
RTVSPost2010Prop54
  1
strokes_ogs.tif
102
RTVSPost2010PropOp54
 70
     1
102
RTVSPost2010Prop55
280
     0
102
RTVSPost2010PropOp55
 70
     1
102
RTVSPost2010Prop56
140
1.0
102
RTVSPost2010PropOp56
 70
     1
102
RTVSPost2010Prop57
140
1.0
102
RTVSPost2010PropOp57
 70
     1
  0
XRECORD
  5
F137
102
{ACAD_REACTORS
330
F136
102
}
330
F136
100
AcDbXrecord
280
     1
102
RTVSPost2010Prop28
280
     0
102
RTVSPost2010PropOp28
 70
     1
102
RTVSPost2010Prop29
280
     1
102
RTVSPost2010PropOp29
 70
     1
102
RTVSPost2010Prop30
280
     1
102
RTVSPost2010PropOp30
 70
     1
102
RTVSPost2010Prop31
280
     0
102
RTVSPost2010PropOp31
 70
     1
102
RTVSPost2010Prop32
280
     0
102
RTVSPost2010PropOp32
 70
     1
102
RTVSPost2010Prop33
280
     0
102
RTVSPost2010PropOp33
 70
     1
102
RTVSPost2010Prop34
280
     0
102
RTVSPost2010PropOp34
 70
     1
102
RTVSPost2010Prop35
280
     0
102
RTVSPost2010PropOp35
 70
     1
102
RTVSPost2010Prop36
280
     0
102
RTVSPost2010PropOp36
 70
     1
102
RTVSPost2010Prop37
 90
       50
102
RTVSPost2010PropOp37
 70
     1
102
RTVSPost2010Prop38
140
0.0
102
RTVSPost2010PropOp38
 70
     1
102
RTVSPost2010Prop39
140
1.0
102
RTVSPost2010PropOp39
 70
     1
102
RTVSPost2010Prop40
 90
        0
102
RTVSPost2010PropOp40
 70
     1
102
RTVSPost2010Prop41ColorIndex
 90
       18
102
RTVSPost2010Prop41ColorRGB
 90
        0
102
RTVSPost2010PropOp41
 70
     1
102
RTVSPost2010Prop42
 90
       50
102
RTVSPost2010PropOp42
 70
     1
102
RTVSPost2010Prop43
 90
        3
102
RTVSPost2010PropOp43
 70
     1
102
RTVSPost2010Prop44ColorIndex
 90
        5
102
RTVSPost2010Prop44ColorRGB
 90
      255
102
RTVSPost2010PropOp44
 70
     1
102
RTVSPost2010Prop45
280
     0
102
RTVSPost2010PropOp45
 70
     1
102
RTVSPost2010Prop46
 90
       50
102
RTVSPost2010PropOp46
 70
     1
102
RTVSPost2010Prop47
 90
       50
102
RTVSPost2010PropOp47
 70
     1
102
RTVSPost2010Prop48
 90
       50
102
RTVSPost2010PropOp48
 70
     1
102
RTVSPost2010Prop49
280
     0
102
RTVSPost2010PropOp49
 70
     1
102
RTVSPost2010Prop50
 90
       50
102
RTVSPost2010PropOp50
 70
     1
102
RTVSPost2010Prop51ColorIndex
 90
      256
102
RTVSPost2010Prop51ColorRGB
 90
-16777216
102
RTVSPost2010PropOp51
 70
     0
102
RTVSPost2010Prop52
140
1.0
102
RTVSPost2010PropOp52
 70
     0
102
RTVSPost2010Prop53
 90
        2
102
RTVSPost2010PropOp53
 70
     1
102
RTVSPost2010Prop54
  1
strokes_ogs.tif
102
RTVSPost2010PropOp54
 70
     1
102
RTVSPost2010Prop55
280
     0
102
RTVSPost2010PropOp55
 70
     1
102
RTVSPost2010Prop56
140
1.0
102
RTVSPost2010PropOp56
 70
     1
102
RTVSPost2010Prop57
140
1.0
102
RTVSPost2010PropOp57
 70
     1
  0
XRECORD
  5
F139
102
{ACAD_REACTORS
330
F138
102
}
330
F138
100
AcDbXrecord
280
     1
102
RTVSPost2010Prop28
280
     0
102
RTVSPost2010PropOp28
 70
     1
102
RTVSPost2010Prop29
280
     1
102
RTVSPost2010PropOp29
 70
     1
102
RTVSPost2010Prop30
280
     1
102
RTVSPost2010PropOp30
 70
     1
102
RTVSPost2010Prop31
280
     0
102
RTVSPost2010PropOp31
 70
     1
102
RTVSPost2010Prop32
280
     0
102
RTVSPost2010PropOp32
 70
     1
102
RTVSPost2010Prop33
280
     0
102
RTVSPost2010PropOp33
 70
     1
102
RTVSPost2010Prop34
280
     0
102
RTVSPost2010PropOp34
 70
     1
102
RTVSPost2010Prop35
280
     0
102
RTVSPost2010PropOp35
 70
     1
102
RTVSPost2010Prop36
280
     0
102
RTVSPost2010PropOp36
 70
     1
102
RTVSPost2010Prop37
 90
       50
102
RTVSPost2010PropOp37
 70
     1
102
RTVSPost2010Prop38
140
0.0
102
RTVSPost2010PropOp38
 70
     1
102
RTVSPost2010Prop39
140
1.0
102
RTVSPost2010PropOp39
 70
     1
102
RTVSPost2010Prop40
 90
        0
102
RTVSPost2010PropOp40
 70
     1
102
RTVSPost2010Prop41ColorIndex
 90
       18
102
RTVSPost2010Prop41ColorRGB
 90
        0
102
RTVSPost2010PropOp41
 70
     1
102
RTVSPost2010Prop42
 90
       50
102
RTVSPost2010PropOp42
 70
     1
102
RTVSPost2010Prop43
 90
        3
102
RTVSPost2010PropOp43
 70
     1
102
RTVSPost2010Prop44ColorIndex
 90
        5
102
RTVSPost2010Prop44ColorRGB
 90
      255
102
RTVSPost2010PropOp44
 70
     1
102
RTVSPost2010Prop45
280
     0
102
RTVSPost2010PropOp45
 70
     1
102
RTVSPost2010Prop46
 90
       50
102
RTVSPost2010PropOp46
 70
     1
102
RTVSPost2010Prop47
 90
       50
102
RTVSPost2010PropOp47
 70
     1
102
RTVSPost2010Prop48
 90
       50
102
RTVSPost2010PropOp48
 70
     1
102
RTVSPost2010Prop49
280
     0
102
RTVSPost2010PropOp49
 70
     1
102
RTVSPost2010Prop50
 90
       50
102
RTVSPost2010PropOp50
 70
     1
102
RTVSPost2010Prop51ColorIndex
 90
      256
102
RTVSPost2010Prop51ColorRGB
 90
-16777216
102
RTVSPost2010PropOp51
 70
     0
102
RTVSPost2010Prop52
140
1.0
102
RTVSPost2010PropOp52
 70
     0
102
RTVSPost2010Prop53
 90
        2
102
RTVSPost2010PropOp53
 70
     1
102
RTVSPost2010Prop54
  1
strokes_ogs.tif
102
RTVSPost2010PropOp54
 70
     1
102
RTVSPost2010Prop55
280
     0
102
RTVSPost2010PropOp55
 70
     1
102
RTVSPost2010Prop56
140
1.0
102
RTVSPost2010PropOp56
 70
     1
102
RTVSPost2010Prop57
140
1.0
102
RTVSPost2010PropOp57
 70
     1
  0
XRECORD
  5
F13B
102
{ACAD_REACTORS
330
F13A
102
}
330
F13A
100
AcDbXrecord
280
     1
102
RTVSPost2010Prop28
280
     0
102
RTVSPost2010PropOp28
 70
     1
102
RTVSPost2010Prop29
280
     1
102
RTVSPost2010PropOp29
 70
     1
102
RTVSPost2010Prop30
280
     1
102
RTVSPost2010PropOp30
 70
     1
102
RTVSPost2010Prop31
280
     0
102
RTVSPost2010PropOp31
 70
     1
102
RTVSPost2010Prop32
280
     0
102
RTVSPost2010PropOp32
 70
     1
102
RTVSPost2010Prop33
280
     0
102
RTVSPost2010PropOp33
 70
     1
102
RTVSPost2010Prop34
280
     0
102
RTVSPost2010PropOp34
 70
     1
102
RTVSPost2010Prop35
280
     0
102
RTVSPost2010PropOp35
 70
     1
102
RTVSPost2010Prop36
280
     0
102
RTVSPost2010PropOp36
 70
     1
102
RTVSPost2010Prop37
 90
       50
102
RTVSPost2010PropOp37
 70
     1
102
RTVSPost2010Prop38
140
0.0
102
RTVSPost2010PropOp38
 70
     1
102
RTVSPost2010Prop39
140
1.0
102
RTVSPost2010PropOp39
 70
     1
102
RTVSPost2010Prop40
 90
        0
102
RTVSPost2010PropOp40
 70
     1
102
RTVSPost2010Prop41ColorIndex
 90
       18
102
RTVSPost2010Prop41ColorRGB
 90
        0
102
RTVSPost2010PropOp41
 70
     1
102
RTVSPost2010Prop42
 90
       50
102
RTVSPost2010PropOp42
 70
     1
102
RTVSPost2010Prop43
 90
        3
102
RTVSPost2010PropOp43
 70
     1
102
RTVSPost2010Prop44ColorIndex
 90
        5
102
RTVSPost2010Prop44ColorRGB
 90
      255
102
RTVSPost2010PropOp44
 70
     1
102
RTVSPost2010Prop45
280
     0
102
RTVSPost2010PropOp45
 70
     1
102
RTVSPost2010Prop46
 90
       50
102
RTVSPost2010PropOp46
 70
     1
102
RTVSPost2010Prop47
 90
       50
102
RTVSPost2010PropOp47
 70
     1
102
RTVSPost2010Prop48
 90
       50
102
RTVSPost2010PropOp48
 70
     1
102
RTVSPost2010Prop49
280
     0
102
RTVSPost2010PropOp49
 70
     1
102
RTVSPost2010Prop50
 90
       50
102
RTVSPost2010PropOp50
 70
     1
102
RTVSPost2010Prop51ColorIndex
 90
      256
102
RTVSPost2010Prop51ColorRGB
 90
-16777216
102
RTVSPost2010PropOp51
 70
     0
102
RTVSPost2010Prop52
140
1.0
102
RTVSPost2010PropOp52
 70
     0
102
RTVSPost2010Prop53
 90
        2
102
RTVSPost2010PropOp53
 70
     1
102
RTVSPost2010Prop54
  1
strokes_ogs.tif
102
RTVSPost2010PropOp54
 70
     1
102
RTVSPost2010Prop55
280
     0
102
RTVSPost2010PropOp55
 70
     1
102
RTVSPost2010Prop56
140
1.0
102
RTVSPost2010PropOp56
 70
     1
102
RTVSPost2010Prop57
140
1.0
102
RTVSPost2010PropOp57
 70
     1
  0
XRECORD
  5
F15D
102
{ACAD_REACTORS
330
F15C
102
}
330
F15C
100
AcDbXrecord
280
     1
102
RTVSPost2010Prop28
280
     0
102
RTVSPost2010PropOp28
 70
     1
102
RTVSPost2010Prop29
280
     1
102
RTVSPost2010PropOp29
 70
     1
102
RTVSPost2010Prop30
280
     1
102
RTVSPost2010PropOp30
 70
     1
102
RTVSPost2010Prop31
280
     0
102
RTVSPost2010PropOp31
 70
     1
102
RTVSPost2010Prop32
280
     0
102
RTVSPost2010PropOp32
 70
     1
102
RTVSPost2010Prop33
280
     0
102
RTVSPost2010PropOp33
 70
     1
102
RTVSPost2010Prop34
280
     0
102
RTVSPost2010PropOp34
 70
     1
102
RTVSPost2010Prop35
280
     0
102
RTVSPost2010PropOp35
 70
     1
102
RTVSPost2010Prop36
280
     0
102
RTVSPost2010PropOp36
 70
     1
102
RTVSPost2010Prop37
 90
       50
102
RTVSPost2010PropOp37
 70
     1
102
RTVSPost2010Prop38
140
0.0
102
RTVSPost2010PropOp38
 70
     1
102
RTVSPost2010Prop39
140
1.0
102
RTVSPost2010PropOp39
 70
     1
102
RTVSPost2010Prop40
 90
        0
102
RTVSPost2010PropOp40
 70
     1
102
RTVSPost2010Prop41ColorIndex
 90
       18
102
RTVSPost2010Prop41ColorRGB
 90
        0
102
RTVSPost2010PropOp41
 70
     1
102
RTVSPost2010Prop42
 90
       50
102
RTVSPost2010PropOp42
 70
     1
102
RTVSPost2010Prop43
 90
        3
102
RTVSPost2010PropOp43
 70
     1
102
RTVSPost2010Prop44ColorIndex
 90
        5
102
RTVSPost2010Prop44ColorRGB
 90
      255
102
RTVSPost2010PropOp44
 70
     1
102
RTVSPost2010Prop45
280
     0
102
RTVSPost2010PropOp45
 70
     1
102
RTVSPost2010Prop46
 90
       50
102
RTVSPost2010PropOp46
 70
     1
102
RTVSPost2010Prop47
 90
       50
102
RTVSPost2010PropOp47
 70
     1
102
RTVSPost2010Prop48
 90
       50
102
RTVSPost2010PropOp48
 70
     1
102
RTVSPost2010Prop49
280
     0
102
RTVSPost2010PropOp49
 70
     1
102
RTVSPost2010Prop50
 90
       50
102
RTVSPost2010PropOp50
 70
     1
102
RTVSPost2010Prop51ColorIndex
 90
      256
102
RTVSPost2010Prop51ColorRGB
 90
-16777216
102
RTVSPost2010PropOp51
 70
     0
102
RTVSPost2010Prop52
140
1.0
102
RTVSPost2010PropOp52
 70
     0
102
RTVSPost2010Prop53
 90
        2
102
RTVSPost2010PropOp53
 70
     1
102
RTVSPost2010Prop54
  1
strokes_ogs.tif
102
RTVSPost2010PropOp54
 70
     1
102
RTVSPost2010Prop55
280
     0
102
RTVSPost2010PropOp55
 70
     1
102
RTVSPost2010Prop56
140
1.0
102
RTVSPost2010PropOp56
 70
     1
102
RTVSPost2010Prop57
140
1.0
102
RTVSPost2010PropOp57
 70
     1
  0
XRECORD
  5
F155
102
{ACAD_REACTORS
330
F154
102
}
330
F154
100
AcDbXrecord
280
     1
102
RTVSPost2010Prop28
280
     0
102
RTVSPost2010PropOp28
 70
     1
102
RTVSPost2010Prop29
280
     1
102
RTVSPost2010PropOp29
 70
     1
102
RTVSPost2010Prop30
280
     1
102
RTVSPost2010PropOp30
 70
     1
102
RTVSPost2010Prop31
280
     0
102
RTVSPost2010PropOp31
 70
     1
102
RTVSPost2010Prop32
280
     0
102
RTVSPost2010PropOp32
 70
     1
102
RTVSPost2010Prop33
280
     0
102
RTVSPost2010PropOp33
 70
     1
102
RTVSPost2010Prop34
280
     0
102
RTVSPost2010PropOp34
 70
     1
102
RTVSPost2010Prop35
280
     0
102
RTVSPost2010PropOp35
 70
     1
102
RTVSPost2010Prop36
280
     0
102
RTVSPost2010PropOp36
 70
     1
102
RTVSPost2010Prop37
 90
       50
102
RTVSPost2010PropOp37
 70
     1
102
RTVSPost2010Prop38
140
0.0
102
RTVSPost2010PropOp38
 70
     1
102
RTVSPost2010Prop39
140
1.0
102
RTVSPost2010PropOp39
 70
     1
102
RTVSPost2010Prop40
 90
        0
102
RTVSPost2010PropOp40
 70
     1
102
RTVSPost2010Prop41ColorIndex
 90
       18
102
RTVSPost2010Prop41ColorRGB
 90
        0
102
RTVSPost2010PropOp41
 70
     1
102
RTVSPost2010Prop42
 90
       50
102
RTVSPost2010PropOp42
 70
     1
102
RTVSPost2010Prop43
 90
        3
102
RTVSPost2010PropOp43
 70
     1
102
RTVSPost2010Prop44ColorIndex
 90
        5
102
RTVSPost2010Prop44ColorRGB
 90
      255
102
RTVSPost2010PropOp44
 70
     1
102
RTVSPost2010Prop45
280
     0
102
RTVSPost2010PropOp45
 70
     1
102
RTVSPost2010Prop46
 90
       50
102
RTVSPost2010PropOp46
 70
     1
102
RTVSPost2010Prop47
 90
       50
102
RTVSPost2010PropOp47
 70
     1
102
RTVSPost2010Prop48
 90
       50
102
RTVSPost2010PropOp48
 70
     1
102
RTVSPost2010Prop49
280
     0
102
RTVSPost2010PropOp49
 70
     1
102
RTVSPost2010Prop50
 90
       50
102
RTVSPost2010PropOp50
 70
     1
102
RTVSPost2010Prop51ColorIndex
 90
      256
102
RTVSPost2010Prop51ColorRGB
 90
-16777216
102
RTVSPost2010PropOp51
 70
     0
102
RTVSPost2010Prop52
140
1.0
102
RTVSPost2010PropOp52
 70
     0
102
RTVSPost2010Prop53
 90
        2
102
RTVSPost2010PropOp53
 70
     1
102
RTVSPost2010Prop54
  1
strokes_ogs.tif
102
RTVSPost2010PropOp54
 70
     1
102
RTVSPost2010Prop55
280
     0
102
RTVSPost2010PropOp55
 70
     1
102
RTVSPost2010Prop56
140
1.0
102
RTVSPost2010PropOp56
 70
     1
102
RTVSPost2010Prop57
140
1.0
102
RTVSPost2010PropOp57
 70
     1
  0
XRECORD
  5
F14F
102
{ACAD_REACTORS
330
F14E
102
}
330
F14E
100
AcDbXrecord
280
     1
102
RTVSPost2010Prop28
280
     0
102
RTVSPost2010PropOp28
 70
     1
102
RTVSPost2010Prop29
280
     1
102
RTVSPost2010PropOp29
 70
     1
102
RTVSPost2010Prop30
280
     1
102
RTVSPost2010PropOp30
 70
     1
102
RTVSPost2010Prop31
280
     0
102
RTVSPost2010PropOp31
 70
     1
102
RTVSPost2010Prop32
280
     0
102
RTVSPost2010PropOp32
 70
     1
102
RTVSPost2010Prop33
280
     0
102
RTVSPost2010PropOp33
 70
     1
102
RTVSPost2010Prop34
280
     0
102
RTVSPost2010PropOp34
 70
     1
102
RTVSPost2010Prop35
280
     0
102
RTVSPost2010PropOp35
 70
     1
102
RTVSPost2010Prop36
280
     0
102
RTVSPost2010PropOp36
 70
     1
102
RTVSPost2010Prop37
 90
       50
102
RTVSPost2010PropOp37
 70
     1
102
RTVSPost2010Prop38
140
0.0
102
RTVSPost2010PropOp38
 70
     1
102
RTVSPost2010Prop39
140
1.0
102
RTVSPost2010PropOp39
 70
     1
102
RTVSPost2010Prop40
 90
        0
102
RTVSPost2010PropOp40
 70
     1
102
RTVSPost2010Prop41ColorIndex
 90
       18
102
RTVSPost2010Prop41ColorRGB
 90
        0
102
RTVSPost2010PropOp41
 70
     1
102
RTVSPost2010Prop42
 90
       50
102
RTVSPost2010PropOp42
 70
     1
102
RTVSPost2010Prop43
 90
        3
102
RTVSPost2010PropOp43
 70
     1
102
RTVSPost2010Prop44ColorIndex
 90
        5
102
RTVSPost2010Prop44ColorRGB
 90
      255
102
RTVSPost2010PropOp44
 70
     1
102
RTVSPost2010Prop45
280
     0
102
RTVSPost2010PropOp45
 70
     1
102
RTVSPost2010Prop46
 90
       50
102
RTVSPost2010PropOp46
 70
     1
102
RTVSPost2010Prop47
 90
       50
102
RTVSPost2010PropOp47
 70
     1
102
RTVSPost2010Prop48
 90
       50
102
RTVSPost2010PropOp48
 70
     1
102
RTVSPost2010Prop49
280
     0
102
RTVSPost2010PropOp49
 70
     1
102
RTVSPost2010Prop50
 90
       50
102
RTVSPost2010PropOp50
 70
     1
102
RTVSPost2010Prop51ColorIndex
 90
      256
102
RTVSPost2010Prop51ColorRGB
 90
-16777216
102
RTVSPost2010PropOp51
 70
     0
102
RTVSPost2010Prop52
140
1.0
102
RTVSPost2010PropOp52
 70
     0
102
RTVSPost2010Prop53
 90
        2
102
RTVSPost2010PropOp53
 70
     1
102
RTVSPost2010Prop54
  1
strokes_ogs.tif
102
RTVSPost2010PropOp54
 70
     1
102
RTVSPost2010Prop55
280
     0
102
RTVSPost2010PropOp55
 70
     1
102
RTVSPost2010Prop56
140
1.0
102
RTVSPost2010PropOp56
 70
     1
102
RTVSPost2010Prop57
140
1.0
102
RTVSPost2010PropOp57
 70
     1
  0
XRECORD
  5
F157
102
{ACAD_REACTORS
330
F156
102
}
330
F156
100
AcDbXrecord
280
     1
102
RTVSPost2010Prop28
280
     0
102
RTVSPost2010PropOp28
 70
     1
102
RTVSPost2010Prop29
280
     1
102
RTVSPost2010PropOp29
 70
     1
102
RTVSPost2010Prop30
280
     1
102
RTVSPost2010PropOp30
 70
     1
102
RTVSPost2010Prop31
280
     0
102
RTVSPost2010PropOp31
 70
     1
102
RTVSPost2010Prop32
280
     0
102
RTVSPost2010PropOp32
 70
     1
102
RTVSPost2010Prop33
280
     0
102
RTVSPost2010PropOp33
 70
     1
102
RTVSPost2010Prop34
280
     0
102
RTVSPost2010PropOp34
 70
     1
102
RTVSPost2010Prop35
280
     0
102
RTVSPost2010PropOp35
 70
     1
102
RTVSPost2010Prop36
280
     0
102
RTVSPost2010PropOp36
 70
     1
102
RTVSPost2010Prop37
 90
       50
102
RTVSPost2010PropOp37
 70
     1
102
RTVSPost2010Prop38
140
0.0
102
RTVSPost2010PropOp38
 70
     1
102
RTVSPost2010Prop39
140
1.0
102
RTVSPost2010PropOp39
 70
     1
102
RTVSPost2010Prop40
 90
        0
102
RTVSPost2010PropOp40
 70
     1
102
RTVSPost2010Prop41ColorIndex
 90
       18
102
RTVSPost2010Prop41ColorRGB
 90
        0
102
RTVSPost2010PropOp41
 70
     1
102
RTVSPost2010Prop42
 90
       50
102
RTVSPost2010PropOp42
 70
     1
102
RTVSPost2010Prop43
 90
        3
102
RTVSPost2010PropOp43
 70
     1
102
RTVSPost2010Prop44ColorIndex
 90
        5
102
RTVSPost2010Prop44ColorRGB
 90
      255
102
RTVSPost2010PropOp44
 70
     1
102
RTVSPost2010Prop45
280
     0
102
RTVSPost2010PropOp45
 70
     1
102
RTVSPost2010Prop46
 90
       50
102
RTVSPost2010PropOp46
 70
     1
102
RTVSPost2010Prop47
 90
       50
102
RTVSPost2010PropOp47
 70
     1
102
RTVSPost2010Prop48
 90
       50
102
RTVSPost2010PropOp48
 70
     1
102
RTVSPost2010Prop49
280
     0
102
RTVSPost2010PropOp49
 70
     1
102
RTVSPost2010Prop50
 90
       50
102
RTVSPost2010PropOp50
 70
     1
102
RTVSPost2010Prop51ColorIndex
 90
      256
102
RTVSPost2010Prop51ColorRGB
 90
-16777216
102
RTVSPost2010PropOp51
 70
     0
102
RTVSPost2010Prop52
140
1.0
102
RTVSPost2010PropOp52
 70
     0
102
RTVSPost2010Prop53
 90
        2
102
RTVSPost2010PropOp53
 70
     1
102
RTVSPost2010Prop54
  1
strokes_ogs.tif
102
RTVSPost2010PropOp54
 70
     1
102
RTVSPost2010Prop55
280
     0
102
RTVSPost2010PropOp55
 70
     1
102
RTVSPost2010Prop56
140
1.0
102
RTVSPost2010PropOp56
 70
     1
102
RTVSPost2010Prop57
140
1.0
102
RTVSPost2010PropOp57
 70
     1
  0
XRECORD
  5
F147
102
{ACAD_REACTORS
330
F146
102
}
330
F146
100
AcDbXrecord
280
     1
102
RTVSPost2010Prop28
280
     0
102
RTVSPost2010PropOp28
 70
     1
102
RTVSPost2010Prop29
280
     1
102
RTVSPost2010PropOp29
 70
     1
102
RTVSPost2010Prop30
280
     1
102
RTVSPost2010PropOp30
 70
     1
102
RTVSPost2010Prop31
280
     0
102
RTVSPost2010PropOp31
 70
     1
102
RTVSPost2010Prop32
280
     0
102
RTVSPost2010PropOp32
 70
     1
102
RTVSPost2010Prop33
280
     0
102
RTVSPost2010PropOp33
 70
     1
102
RTVSPost2010Prop34
280
     0
102
RTVSPost2010PropOp34
 70
     1
102
RTVSPost2010Prop35
280
     0
102
RTVSPost2010PropOp35
 70
     1
102
RTVSPost2010Prop36
280
     0
102
RTVSPost2010PropOp36
 70
     1
102
RTVSPost2010Prop37
 90
       50
102
RTVSPost2010PropOp37
 70
     1
102
RTVSPost2010Prop38
140
0.0
102
RTVSPost2010PropOp38
 70
     1
102
RTVSPost2010Prop39
140
1.0
102
RTVSPost2010PropOp39
 70
     1
102
RTVSPost2010Prop40
 90
        0
102
RTVSPost2010PropOp40
 70
     1
102
RTVSPost2010Prop41ColorIndex
 90
       18
102
RTVSPost2010Prop41ColorRGB
 90
        0
102
RTVSPost2010PropOp41
 70
     1
102
RTVSPost2010Prop42
 90
       50
102
RTVSPost2010PropOp42
 70
     1
102
RTVSPost2010Prop43
 90
        3
102
RTVSPost2010PropOp43
 70
     1
102
RTVSPost2010Prop44ColorIndex
 90
        5
102
RTVSPost2010Prop44ColorRGB
 90
      255
102
RTVSPost2010PropOp44
 70
     1
102
RTVSPost2010Prop45
280
     0
102
RTVSPost2010PropOp45
 70
     1
102
RTVSPost2010Prop46
 90
       50
102
RTVSPost2010PropOp46
 70
     1
102
RTVSPost2010Prop47
 90
       50
102
RTVSPost2010PropOp47
 70
     1
102
RTVSPost2010Prop48
 90
       50
102
RTVSPost2010PropOp48
 70
     1
102
RTVSPost2010Prop49
280
     0
102
RTVSPost2010PropOp49
 70
     1
102
RTVSPost2010Prop50
 90
       50
102
RTVSPost2010PropOp50
 70
     1
102
RTVSPost2010Prop51ColorIndex
 90
      256
102
RTVSPost2010Prop51ColorRGB
 90
-16777216
102
RTVSPost2010PropOp51
 70
     0
102
RTVSPost2010Prop52
140
1.0
102
RTVSPost2010PropOp52
 70
     0
102
RTVSPost2010Prop53
 90
        2
102
RTVSPost2010PropOp53
 70
     1
102
RTVSPost2010Prop54
  1
strokes_ogs.tif
102
RTVSPost2010PropOp54
 70
     1
102
RTVSPost2010Prop55
280
     0
102
RTVSPost2010PropOp55
 70
     1
102
RTVSPost2010Prop56
140
1.0
102
RTVSPost2010PropOp56
 70
     1
102
RTVSPost2010Prop57
140
1.0
102
RTVSPost2010PropOp57
 70
     1
  0
XRECORD
  5
F167
102
{ACAD_REACTORS
330
F166
102
}
330
F166
100
AcDbXrecord
280
     1
102
RTVSPost2010Prop28
280
     0
102
RTVSPost2010PropOp28
 70
     1
102
RTVSPost2010Prop29
280
     1
102
RTVSPost2010PropOp29
 70
     1
102
RTVSPost2010Prop30
280
     1
102
RTVSPost2010PropOp30
 70
     1
102
RTVSPost2010Prop31
280
     0
102
RTVSPost2010PropOp31
 70
     1
102
RTVSPost2010Prop32
280
     0
102
RTVSPost2010PropOp32
 70
     1
102
RTVSPost2010Prop33
280
     0
102
RTVSPost2010PropOp33
 70
     1
102
RTVSPost2010Prop34
280
     0
102
RTVSPost2010PropOp34
 70
     1
102
RTVSPost2010Prop35
280
     0
102
RTVSPost2010PropOp35
 70
     1
102
RTVSPost2010Prop36
280
     0
102
RTVSPost2010PropOp36
 70
     1
102
RTVSPost2010Prop37
 90
       50
102
RTVSPost2010PropOp37
 70
     1
102
RTVSPost2010Prop38
140
0.0
102
RTVSPost2010PropOp38
 70
     1
102
RTVSPost2010Prop39
140
1.0
102
RTVSPost2010PropOp39
 70
     1
102
RTVSPost2010Prop40
 90
        0
102
RTVSPost2010PropOp40
 70
     1
102
RTVSPost2010Prop41ColorIndex
 90
       18
102
RTVSPost2010Prop41ColorRGB
 90
        0
102
RTVSPost2010PropOp41
 70
     1
102
RTVSPost2010Prop42
 90
       50
102
RTVSPost2010PropOp42
 70
     1
102
RTVSPost2010Prop43
 90
        3
102
RTVSPost2010PropOp43
 70
     1
102
RTVSPost2010Prop44ColorIndex
 90
        5
102
RTVSPost2010Prop44ColorRGB
 90
      255
102
RTVSPost2010PropOp44
 70
     1
102
RTVSPost2010Prop45
280
     0
102
RTVSPost2010PropOp45
 70
     1
102
RTVSPost2010Prop46
 90
       50
102
RTVSPost2010PropOp46
 70
     1
102
RTVSPost2010Prop47
 90
       50
102
RTVSPost2010PropOp47
 70
     1
102
RTVSPost2010Prop48
 90
       50
102
RTVSPost2010PropOp48
 70
     1
102
RTVSPost2010Prop49
280
     0
102
RTVSPost2010PropOp49
 70
     1
102
RTVSPost2010Prop50
 90
       50
102
RTVSPost2010PropOp50
 70
     1
102
RTVSPost2010Prop51ColorIndex
 90
      256
102
RTVSPost2010Prop51ColorRGB
 90
-16777216
102
RTVSPost2010PropOp51
 70
     0
102
RTVSPost2010Prop52
140
1.0
102
RTVSPost2010PropOp52
 70
     0
102
RTVSPost2010Prop53
 90
        2
102
RTVSPost2010PropOp53
 70
     1
102
RTVSPost2010Prop54
  1
strokes_ogs.tif
102
RTVSPost2010PropOp54
 70
     1
102
RTVSPost2010Prop55
280
     0
102
RTVSPost2010PropOp55
 70
     1
102
RTVSPost2010Prop56
140
1.0
102
RTVSPost2010PropOp56
 70
     1
102
RTVSPost2010Prop57
140
1.0
102
RTVSPost2010PropOp57
 70
     1
  0
XRECORD
  5
F165
102
{ACAD_REACTORS
330
F164
102
}
330
F164
100
AcDbXrecord
280
     1
102
RTVSPost2010Prop28
280
     0
102
RTVSPost2010PropOp28
 70
     1
102
RTVSPost2010Prop29
280
     1
102
RTVSPost2010PropOp29
 70
     1
102
RTVSPost2010Prop30
280
     1
102
RTVSPost2010PropOp30
 70
     1
102
RTVSPost2010Prop31
280
     0
102
RTVSPost2010PropOp31
 70
     1
102
RTVSPost2010Prop32
280
     0
102
RTVSPost2010PropOp32
 70
     1
102
RTVSPost2010Prop33
280
     0
102
RTVSPost2010PropOp33
 70
     1
102
RTVSPost2010Prop34
280
     0
102
RTVSPost2010PropOp34
 70
     1
102
RTVSPost2010Prop35
280
     0
102
RTVSPost2010PropOp35
 70
     1
102
RTVSPost2010Prop36
280
     0
102
RTVSPost2010PropOp36
 70
     1
102
RTVSPost2010Prop37
 90
       50
102
RTVSPost2010PropOp37
 70
     1
102
RTVSPost2010Prop38
140
0.0
102
RTVSPost2010PropOp38
 70
     1
102
RTVSPost2010Prop39
140
1.0
102
RTVSPost2010PropOp39
 70
     1
102
RTVSPost2010Prop40
 90
        0
102
RTVSPost2010PropOp40
 70
     1
102
RTVSPost2010Prop41ColorIndex
 90
       18
102
RTVSPost2010Prop41ColorRGB
 90
        0
102
RTVSPost2010PropOp41
 70
     1
102
RTVSPost2010Prop42
 90
       50
102
RTVSPost2010PropOp42
 70
     1
102
RTVSPost2010Prop43
 90
        3
102
RTVSPost2010PropOp43
 70
     1
102
RTVSPost2010Prop44ColorIndex
 90
        5
102
RTVSPost2010Prop44ColorRGB
 90
      255
102
RTVSPost2010PropOp44
 70
     1
102
RTVSPost2010Prop45
280
     0
102
RTVSPost2010PropOp45
 70
     1
102
RTVSPost2010Prop46
 90
       50
102
RTVSPost2010PropOp46
 70
     1
102
RTVSPost2010Prop47
 90
       50
102
RTVSPost2010PropOp47
 70
     1
102
RTVSPost2010Prop48
 90
       50
102
RTVSPost2010PropOp48
 70
     1
102
RTVSPost2010Prop49
280
     0
102
RTVSPost2010PropOp49
 70
     1
102
RTVSPost2010Prop50
 90
       50
102
RTVSPost2010PropOp50
 70
     1
102
RTVSPost2010Prop51ColorIndex
 90
      256
102
RTVSPost2010Prop51ColorRGB
 90
-16777216
102
RTVSPost2010PropOp51
 70
     0
102
RTVSPost2010Prop52
140
1.0
102
RTVSPost2010PropOp52
 70
     0
102
RTVSPost2010Prop53
 90
        2
102
RTVSPost2010PropOp53
 70
     1
102
RTVSPost2010Prop54
  1
strokes_ogs.tif
102
RTVSPost2010PropOp54
 70
     1
102
RTVSPost2010Prop55
280
     0
102
RTVSPost2010PropOp55
 70
     1
102
RTVSPost2010Prop56
140
1.0
102
RTVSPost2010PropOp56
 70
     1
102
RTVSPost2010Prop57
140
1.0
102
RTVSPost2010PropOp57
 70
     1
  0
XRECORD
  5
F15F
102
{ACAD_REACTORS
330
F15E
102
}
330
F15E
100
AcDbXrecord
280
     1
102
RTVSPost2010Prop28
280
     0
102
RTVSPost2010PropOp28
 70
     1
102
RTVSPost2010Prop29
280
     1
102
RTVSPost2010PropOp29
 70
     1
102
RTVSPost2010Prop30
280
     1
102
RTVSPost2010PropOp30
 70
     1
102
RTVSPost2010Prop31
280
     0
102
RTVSPost2010PropOp31
 70
     1
102
RTVSPost2010Prop32
280
     0
102
RTVSPost2010PropOp32
 70
     1
102
RTVSPost2010Prop33
280
     0
102
RTVSPost2010PropOp33
 70
     1
102
RTVSPost2010Prop34
280
     0
102
RTVSPost2010PropOp34
 70
     1
102
RTVSPost2010Prop35
280
     0
102
RTVSPost2010PropOp35
 70
     1
102
RTVSPost2010Prop36
280
     0
102
RTVSPost2010PropOp36
 70
     1
102
RTVSPost2010Prop37
 90
       50
102
RTVSPost2010PropOp37
 70
     1
102
RTVSPost2010Prop38
140
0.0
102
RTVSPost2010PropOp38
 70
     1
102
RTVSPost2010Prop39
140
1.0
102
RTVSPost2010PropOp39
 70
     1
102
RTVSPost2010Prop40
 90
        0
102
RTVSPost2010PropOp40
 70
     1
102
RTVSPost2010Prop41ColorIndex
 90
       18
102
RTVSPost2010Prop41ColorRGB
 90
        0
102
RTVSPost2010PropOp41
 70
     1
102
RTVSPost2010Prop42
 90
       50
102
RTVSPost2010PropOp42
 70
     1
102
RTVSPost2010Prop43
 90
        3
102
RTVSPost2010PropOp43
 70
     1
102
RTVSPost2010Prop44ColorIndex
 90
        5
102
RTVSPost2010Prop44ColorRGB
 90
      255
102
RTVSPost2010PropOp44
 70
     1
102
RTVSPost2010Prop45
280
     0
102
RTVSPost2010PropOp45
 70
     1
102
RTVSPost2010Prop46
 90
       50
102
RTVSPost2010PropOp46
 70
     1
102
RTVSPost2010Prop47
 90
       50
102
RTVSPost2010PropOp47
 70
     1
102
RTVSPost2010Prop48
 90
       50
102
RTVSPost2010PropOp48
 70
     1
102
RTVSPost2010Prop49
280
     0
102
RTVSPost2010PropOp49
 70
     1
102
RTVSPost2010Prop50
 90
       50
102
RTVSPost2010PropOp50
 70
     1
102
RTVSPost2010Prop51ColorIndex
 90
      256
102
RTVSPost2010Prop51ColorRGB
 90
-16777216
102
RTVSPost2010PropOp51
 70
     0
102
RTVSPost2010Prop52
140
1.0
102
RTVSPost2010PropOp52
 70
     0
102
RTVSPost2010Prop53
 90
        2
102
RTVSPost2010PropOp53
 70
     1
102
RTVSPost2010Prop54
  1
strokes_ogs.tif
102
RTVSPost2010PropOp54
 70
     1
102
RTVSPost2010Prop55
280
     0
102
RTVSPost2010PropOp55
 70
     1
102
RTVSPost2010Prop56
140
1.0
102
RTVSPost2010PropOp56
 70
     1
102
RTVSPost2010Prop57
140
1.0
102
RTVSPost2010PropOp57
 70
     1
  0
XRECORD
  5
F161
102
{ACAD_REACTORS
330
F160
102
}
330
F160
100
AcDbXrecord
280
     1
102
RTVSPost2010Prop28
280
     0
102
RTVSPost2010PropOp28
 70
     1
102
RTVSPost2010Prop29
280
     1
102
RTVSPost2010PropOp29
 70
     1
102
RTVSPost2010Prop30
280
     1
102
RTVSPost2010PropOp30
 70
     1
102
RTVSPost2010Prop31
280
     0
102
RTVSPost2010PropOp31
 70
     1
102
RTVSPost2010Prop32
280
     0
102
RTVSPost2010PropOp32
 70
     1
102
RTVSPost2010Prop33
280
     0
102
RTVSPost2010PropOp33
 70
     1
102
RTVSPost2010Prop34
280
     0
102
RTVSPost2010PropOp34
 70
     1
102
RTVSPost2010Prop35
280
     0
102
RTVSPost2010PropOp35
 70
     1
102
RTVSPost2010Prop36
280
     0
102
RTVSPost2010PropOp36
 70
     1
102
RTVSPost2010Prop37
 90
       50
102
RTVSPost2010PropOp37
 70
     1
102
RTVSPost2010Prop38
140
0.0
102
RTVSPost2010PropOp38
 70
     1
102
RTVSPost2010Prop39
140
1.0
102
RTVSPost2010PropOp39
 70
     1
102
RTVSPost2010Prop40
 90
        0
102
RTVSPost2010PropOp40
 70
     1
102
RTVSPost2010Prop41ColorIndex
 90
       18
102
RTVSPost2010Prop41ColorRGB
 90
        0
102
RTVSPost2010PropOp41
 70
     1
102
RTVSPost2010Prop42
 90
       50
102
RTVSPost2010PropOp42
 70
     1
102
RTVSPost2010Prop43
 90
        3
102
RTVSPost2010PropOp43
 70
     1
102
RTVSPost2010Prop44ColorIndex
 90
        5
102
RTVSPost2010Prop44ColorRGB
 90
      255
102
RTVSPost2010PropOp44
 70
     1
102
RTVSPost2010Prop45
280
     0
102
RTVSPost2010PropOp45
 70
     1
102
RTVSPost2010Prop46
 90
       50
102
RTVSPost2010PropOp46
 70
     1
102
RTVSPost2010Prop47
 90
       50
102
RTVSPost2010PropOp47
 70
     1
102
RTVSPost2010Prop48
 90
       50
102
RTVSPost2010PropOp48
 70
     1
102
RTVSPost2010Prop49
280
     0
102
RTVSPost2010PropOp49
 70
     1
102
RTVSPost2010Prop50
 90
       50
102
RTVSPost2010PropOp50
 70
     1
102
RTVSPost2010Prop51ColorIndex
 90
      256
102
RTVSPost2010Prop51ColorRGB
 90
-16777216
102
RTVSPost2010PropOp51
 70
     0
102
RTVSPost2010Prop52
140
1.0
102
RTVSPost2010PropOp52
 70
     0
102
RTVSPost2010Prop53
 90
        2
102
RTVSPost2010PropOp53
 70
     1
102
RTVSPost2010Prop54
  1
strokes_ogs.tif
102
RTVSPost2010PropOp54
 70
     1
102
RTVSPost2010Prop55
280
     0
102
RTVSPost2010PropOp55
 70
     1
102
RTVSPost2010Prop56
140
1.0
102
RTVSPost2010PropOp56
 70
     1
102
RTVSPost2010Prop57
140
1.0
102
RTVSPost2010PropOp57
 70
     1
  0
XRECORD
  5
F14D
102
{ACAD_REACTORS
330
F14C
102
}
330
F14C
100
AcDbXrecord
280
     1
102
RTVSPost2010Prop28
280
     0
102
RTVSPost2010PropOp28
 70
     1
102
RTVSPost2010Prop29
280
     1
102
RTVSPost2010PropOp29
 70
     1
102
RTVSPost2010Prop30
280
     1
102
RTVSPost2010PropOp30
 70
     1
102
RTVSPost2010Prop31
280
     0
102
RTVSPost2010PropOp31
 70
     1
102
RTVSPost2010Prop32
280
     0
102
RTVSPost2010PropOp32
 70
     1
102
RTVSPost2010Prop33
280
     0
102
RTVSPost2010PropOp33
 70
     1
102
RTVSPost2010Prop34
280
     0
102
RTVSPost2010PropOp34
 70
     1
102
RTVSPost2010Prop35
280
     0
102
RTVSPost2010PropOp35
 70
     1
102
RTVSPost2010Prop36
280
     0
102
RTVSPost2010PropOp36
 70
     1
102
RTVSPost2010Prop37
 90
       50
102
RTVSPost2010PropOp37
 70
     1
102
RTVSPost2010Prop38
140
0.0
102
RTVSPost2010PropOp38
 70
     1
102
RTVSPost2010Prop39
140
1.0
102
RTVSPost2010PropOp39
 70
     1
102
RTVSPost2010Prop40
 90
        0
102
RTVSPost2010PropOp40
 70
     1
102
RTVSPost2010Prop41ColorIndex
 90
       18
102
RTVSPost2010Prop41ColorRGB
 90
        0
102
RTVSPost2010PropOp41
 70
     1
102
RTVSPost2010Prop42
 90
       50
102
RTVSPost2010PropOp42
 70
     1
102
RTVSPost2010Prop43
 90
        3
102
RTVSPost2010PropOp43
 70
     1
102
RTVSPost2010Prop44ColorIndex
 90
        5
102
RTVSPost2010Prop44ColorRGB
 90
      255
102
RTVSPost2010PropOp44
 70
     1
102
RTVSPost2010Prop45
280
     0
102
RTVSPost2010PropOp45
 70
     1
102
RTVSPost2010Prop46
 90
       50
102
RTVSPost2010PropOp46
 70
     1
102
RTVSPost2010Prop47
 90
       50
102
RTVSPost2010PropOp47
 70
     1
102
RTVSPost2010Prop48
 90
       50
102
RTVSPost2010PropOp48
 70
     1
102
RTVSPost2010Prop49
280
     0
102
RTVSPost2010PropOp49
 70
     1
102
RTVSPost2010Prop50
 90
       50
102
RTVSPost2010PropOp50
 70
     1
102
RTVSPost2010Prop51ColorIndex
 90
      256
102
RTVSPost2010Prop51ColorRGB
 90
-16777216
102
RTVSPost2010PropOp51
 70
     0
102
RTVSPost2010Prop52
140
1.0
102
RTVSPost2010PropOp52
 70
     0
102
RTVSPost2010Prop53
 90
        2
102
RTVSPost2010PropOp53
 70
     1
102
RTVSPost2010Prop54
  1
strokes_ogs.tif
102
RTVSPost2010PropOp54
 70
     1
102
RTVSPost2010Prop55
280
     0
102
RTVSPost2010PropOp55
 70
     1
102
RTVSPost2010Prop56
140
1.0
102
RTVSPost2010PropOp56
 70
     1
102
RTVSPost2010Prop57
140
1.0
102
RTVSPost2010PropOp57
 70
     1
  0
XRECORD
  5
F15B
102
{ACAD_REACTORS
330
F15A
102
}
330
F15A
100
AcDbXrecord
280
     1
102
RTVSPost2010Prop28
280
     0
102
RTVSPost2010PropOp28
 70
     1
102
RTVSPost2010Prop29
280
     1
102
RTVSPost2010PropOp29
 70
     1
102
RTVSPost2010Prop30
280
     1
102
RTVSPost2010PropOp30
 70
     1
102
RTVSPost2010Prop31
280
     0
102
RTVSPost2010PropOp31
 70
     1
102
RTVSPost2010Prop32
280
     0
102
RTVSPost2010PropOp32
 70
     1
102
RTVSPost2010Prop33
280
     0
102
RTVSPost2010PropOp33
 70
     1
102
RTVSPost2010Prop34
280
     0
102
RTVSPost2010PropOp34
 70
     1
102
RTVSPost2010Prop35
280
     0
102
RTVSPost2010PropOp35
 70
     1
102
RTVSPost2010Prop36
280
     0
102
RTVSPost2010PropOp36
 70
     1
102
RTVSPost2010Prop37
 90
       50
102
RTVSPost2010PropOp37
 70
     1
102
RTVSPost2010Prop38
140
0.0
102
RTVSPost2010PropOp38
 70
     1
102
RTVSPost2010Prop39
140
1.0
102
RTVSPost2010PropOp39
 70
     1
102
RTVSPost2010Prop40
 90
        0
102
RTVSPost2010PropOp40
 70
     1
102
RTVSPost2010Prop41ColorIndex
 90
       18
102
RTVSPost2010Prop41ColorRGB
 90
        0
102
RTVSPost2010PropOp41
 70
     1
102
RTVSPost2010Prop42
 90
       50
102
RTVSPost2010PropOp42
 70
     1
102
RTVSPost2010Prop43
 90
        3
102
RTVSPost2010PropOp43
 70
     1
102
RTVSPost2010Prop44ColorIndex
 90
        5
102
RTVSPost2010Prop44ColorRGB
 90
      255
102
RTVSPost2010PropOp44
 70
     1
102
RTVSPost2010Prop45
280
     0
102
RTVSPost2010PropOp45
 70
     1
102
RTVSPost2010Prop46
 90
       50
102
RTVSPost2010PropOp46
 70
     1
102
RTVSPost2010Prop47
 90
       50
102
RTVSPost2010PropOp47
 70
     1
102
RTVSPost2010Prop48
 90
       50
102
RTVSPost2010PropOp48
 70
     1
102
RTVSPost2010Prop49
280
     0
102
RTVSPost2010PropOp49
 70
     1
102
RTVSPost2010Prop50
 90
       50
102
RTVSPost2010PropOp50
 70
     1
102
RTVSPost2010Prop51ColorIndex
 90
      256
102
RTVSPost2010Prop51ColorRGB
 90
-16777216
102
RTVSPost2010PropOp51
 70
     0
102
RTVSPost2010Prop52
140
1.0
102
RTVSPost2010PropOp52
 70
     0
102
RTVSPost2010Prop53
 90
        2
102
RTVSPost2010PropOp53
 70
     1
102
RTVSPost2010Prop54
  1
strokes_ogs.tif
102
RTVSPost2010PropOp54
 70
     1
102
RTVSPost2010Prop55
280
     0
102
RTVSPost2010PropOp55
 70
     1
102
RTVSPost2010Prop56
140
1.0
102
RTVSPost2010PropOp56
 70
     1
102
RTVSPost2010Prop57
140
1.0
102
RTVSPost2010PropOp57
 70
     1
  0
XRECORD
  5
F163
102
{ACAD_REACTORS
330
F162
102
}
330
F162
100
AcDbXrecord
280
     1
102
RTVSPost2010Prop28
280
     0
102
RTVSPost2010PropOp28
 70
     1
102
RTVSPost2010Prop29
280
     1
102
RTVSPost2010PropOp29
 70
     1
102
RTVSPost2010Prop30
280
     1
102
RTVSPost2010PropOp30
 70
     1
102
RTVSPost2010Prop31
280
     0
102
RTVSPost2010PropOp31
 70
     1
102
RTVSPost2010Prop32
280
     0
102
RTVSPost2010PropOp32
 70
     1
102
RTVSPost2010Prop33
280
     0
102
RTVSPost2010PropOp33
 70
     1
102
RTVSPost2010Prop34
280
     0
102
RTVSPost2010PropOp34
 70
     1
102
RTVSPost2010Prop35
280
     0
102
RTVSPost2010PropOp35
 70
     1
102
RTVSPost2010Prop36
280
     0
102
RTVSPost2010PropOp36
 70
     1
102
RTVSPost2010Prop37
 90
       50
102
RTVSPost2010PropOp37
 70
     1
102
RTVSPost2010Prop38
140
0.0
102
RTVSPost2010PropOp38
 70
     1
102
RTVSPost2010Prop39
140
1.0
102
RTVSPost2010PropOp39
 70
     1
102
RTVSPost2010Prop40
 90
        0
102
RTVSPost2010PropOp40
 70
     1
102
RTVSPost2010Prop41ColorIndex
 90
       18
102
RTVSPost2010Prop41ColorRGB
 90
        0
102
RTVSPost2010PropOp41
 70
     1
102
RTVSPost2010Prop42
 90
       50
102
RTVSPost2010PropOp42
 70
     1
102
RTVSPost2010Prop43
 90
        3
102
RTVSPost2010PropOp43
 70
     1
102
RTVSPost2010Prop44ColorIndex
 90
        5
102
RTVSPost2010Prop44ColorRGB
 90
      255
102
RTVSPost2010PropOp44
 70
     1
102
RTVSPost2010Prop45
280
     0
102
RTVSPost2010PropOp45
 70
     1
102
RTVSPost2010Prop46
 90
       50
102
RTVSPost2010PropOp46
 70
     1
102
RTVSPost2010Prop47
 90
       50
102
RTVSPost2010PropOp47
 70
     1
102
RTVSPost2010Prop48
 90
       50
102
RTVSPost2010PropOp48
 70
     1
102
RTVSPost2010Prop49
280
     0
102
RTVSPost2010PropOp49
 70
     1
102
RTVSPost2010Prop50
 90
       50
102
RTVSPost2010PropOp50
 70
     1
102
RTVSPost2010Prop51ColorIndex
 90
      256
102
RTVSPost2010Prop51ColorRGB
 90
-16777216
102
RTVSPost2010PropOp51
 70
     0
102
RTVSPost2010Prop52
140
1.0
102
RTVSPost2010PropOp52
 70
     0
102
RTVSPost2010Prop53
 90
        2
102
RTVSPost2010PropOp53
 70
     1
102
RTVSPost2010Prop54
  1
strokes_ogs.tif
102
RTVSPost2010PropOp54
 70
     1
102
RTVSPost2010Prop55
280
     0
102
RTVSPost2010PropOp55
 70
     1
102
RTVSPost2010Prop56
140
1.0
102
RTVSPost2010PropOp56
 70
     1
102
RTVSPost2010Prop57
140
1.0
102
RTVSPost2010PropOp57
 70
     1
  0
ENDSEC
  0
EOF
